  0
SECTION
  2
HEADER
  9
$ACADVER
  1
AC1032
  9
$ACADMAINTVER
 90
        4
  9
$DWGCODEPAGE
  3
ANSI_1252
  9
$LASTSAVEDBY
  1
Stefano
  9
$REQUIREDVERSIONS
160
                 0
  9
$INSBASE
 10
0.0
 20
0.0
 30
0.0
  9
$EXTMIN
 10
-315.0201966567382
 20
-388.0932188123635
 30
-108.7541451751482
  9
$EXTMAX
 10
1812.915084223641
 20
1049.407373480133
 30
57.83846876104323
  9
$LIMMIN
 10
0.0
 20
0.0
  9
$LIMMAX
 10
12.0
 20
9.0
  9
$ORTHOMODE
 70
     0
  9
$REGENMODE
 70
     1
  9
$FILLMODE
 70
     1
  9
$QTEXTMODE
 70
     0
  9
$MIRRTEXT
 70
     0
  9
$LTSCALE
 40
1.0
  9
$ATTMODE
 70
     1
  9
$TEXTSIZE
 40
12.0
  9
$TRACEWID
 40
0.05
  9
$TEXTSTYLE
  7
STANDARD
  9
$CLAYER
  8
0
  9
$CELTYPE
  6
Continuous
  9
$CECOLOR
 62
   256
  9
$CELTSCALE
 40
1.0
  9
$DISPSILH
 70
     0
  9
$DIMSCALE
 40
1.0
  9
$DIMASZ
 40
0.18
  9
$DIMEXO
 40
0.0625
  9
$DIMDLI
 40
0.38
  9
$DIMRND
 40
0.0
  9
$DIMDLE
 40
0.0
  9
$DIMEXE
 40
0.18
  9
$DIMTP
 40
0.0
  9
$DIMTM
 40
0.0
  9
$DIMTXT
 40
0.18
  9
$DIMCEN
 40
0.09
  9
$DIMTSZ
 40
0.0
  9
$DIMTOL
 70
     0
  9
$DIMLIM
 70
     0
  9
$DIMTIH
 70
     1
  9
$DIMTOH
 70
     1
  9
$DIMSE1
 70
     0
  9
$DIMSE2
 70
     0
  9
$DIMTAD
 70
     0
  9
$DIMZIN
 70
     0
  9
$DIMBLK
  1

  9
$DIMASO
 70
     1
  9
$DIMSHO
 70
     1
  9
$DIMPOST
  1

  9
$DIMAPOST
  1

  9
$DIMALT
 70
     0
  9
$DIMALTD
 70
     2
  9
$DIMALTF
 40
25.4
  9
$DIMLFAC
 40
1.0
  9
$DIMTOFL
 70
     0
  9
$DIMTVP
 40
0.0
  9
$DIMTIX
 70
     0
  9
$DIMSOXD
 70
     0
  9
$DIMSAH
 70
     0
  9
$DIMBLK1
  1

  9
$DIMBLK2
  1

  9
$DIMSTYLE
  2
Standard
  9
$DIMCLRD
 70
     0
  9
$DIMCLRE
 70
     0
  9
$DIMCLRT
 70
     0
  9
$DIMTFAC
 40
1.0
  9
$DIMGAP
 40
0.09
  9
$DIMJUST
 70
     0
  9
$DIMSD1
 70
     0
  9
$DIMSD2
 70
     0
  9
$DIMTOLJ
 70
     1
  9
$DIMTZIN
 70
     0
  9
$DIMALTZ
 70
     0
  9
$DIMALTTZ
 70
     0
  9
$DIMUPT
 70
     0
  9
$DIMDEC
 70
     4
  9
$DIMTDEC
 70
     4
  9
$DIMALTU
 70
     2
  9
$DIMALTTD
 70
     2
  9
$DIMTXSTY
  7
STANDARD
  9
$DIMAUNIT
 70
     0
  9
$DIMADEC
 70
     0
  9
$DIMALTRND
 40
0.0
  9
$DIMAZIN
 70
     0
  9
$DIMDSEP
 70
    46
  9
$DIMATFIT
 70
     3
  9
$DIMFRAC
 70
     0
  9
$DIMLDRBLK
  1

  9
$DIMLUNIT
 70
     2
  9
$DIMLWD
 70
    -2
  9
$DIMLWE
 70
    -2
  9
$DIMTMOVE
 70
     0
  9
$DIMFXL
 40
1.0
  9
$DIMFXLON
 70
     0
  9
$DIMJOGANG
 40
0.7853981633974483
  9
$DIMTFILL
 70
     0
  9
$DIMTFILLCLR
 70
     0
  9
$DIMARCSYM
 70
     0
  9
$DIMLTYPE
  6

  9
$DIMLTEX1
  6

  9
$DIMLTEX2
  6

  9
$DIMTXTDIRECTION
 70
     0
  9
$LUNITS
 70
     2
  9
$LUPREC
 70
     4
  9
$SKETCHINC
 40
0.1
  9
$FILLETRAD
 40
0.0
  9
$AUNITS
 70
     0
  9
$AUPREC
 70
     0
  9
$MENU
  1
.
  9
$ELEVATION
 40
0.0
  9
$PELEVATION
 40
0.0
  9
$THICKNESS
 40
0.0
  9
$LIMCHECK
 70
     0
  9
$CHAMFERA
 40
0.0
  9
$CHAMFERB
 40
0.0
  9
$CHAMFERC
 40
0.0
  9
$CHAMFERD
 40
0.0
  9
$SKPOLY
 70
     0
  9
$TDCREATE
 40
2458853.405046296
  9
$TDUCREATE
 40
2458853.363379630
  9
$TDUPDATE
 40
2458853.429872685
  9
$TDUUPDATE
 40
2458853.388206019
  9
$TDINDWG
 40
0.0248263889
  9
$TDUSRTIMER
 40
0.0248263889
  9
$USRTIMER
 70
     1
  9
$ANGBASE
 50
0.0
  9
$ANGDIR
 70
     0
  9
$PDMODE
 70
     0
  9
$PDSIZE
 40
0.0
  9
$PLINEWID
 40
0.0
  9
$SPLFRAME
 70
     0
  9
$SPLINETYPE
 70
     6
  9
$SPLINESEGS
 70
     8
  9
$HANDSEED
  5
101F3
  9
$SURFTAB1
 70
     6
  9
$SURFTAB2
 70
     6
  9
$SURFTYPE
 70
     6
  9
$SURFU
 70
     6
  9
$SURFV
 70
     6
  9
$UCSBASE
  2

  9
$UCSNAME
  2

  9
$UCSORG
 10
0.0
 20
0.0
 30
0.0
  9
$UCSXDIR
 10
1.0
 20
0.0
 30
0.0
  9
$UCSYDIR
 10
0.0
 20
1.0
 30
0.0
  9
$UCSORTHOREF
  2

  9
$UCSORTHOVIEW
 70
     0
  9
$UCSORGTOP
 10
0.0
 20
0.0
 30
0.0
  9
$UCSORGBOTTOM
 10
0.0
 20
0.0
 30
0.0
  9
$UCSORGLEFT
 10
0.0
 20
0.0
 30
0.0
  9
$UCSORGRIGHT
 10
0.0
 20
0.0
 30
0.0
  9
$UCSORGFRONT
 10
0.0
 20
0.0
 30
0.0
  9
$UCSORGBACK
 10
0.0
 20
0.0
 30
0.0
  9
$PUCSBASE
  2

  9
$PUCSNAME
  2

  9
$PUCSORG
 10
0.0
 20
0.0
 30
0.0
  9
$PUCSXDIR
 10
1.0
 20
0.0
 30
0.0
  9
$PUCSYDIR
 10
0.0
 20
1.0
 30
0.0
  9
$PUCSORTHOREF
  2

  9
$PUCSORTHOVIEW
 70
     0
  9
$PUCSORGTOP
 10
0.0
 20
0.0
 30
0.0
  9
$PUCSORGBOTTOM
 10
0.0
 20
0.0
 30
0.0
  9
$PUCSORGLEFT
 10
0.0
 20
0.0
 30
0.0
  9
$PUCSORGRIGHT
 10
0.0
 20
0.0
 30
0.0
  9
$PUCSORGFRONT
 10
0.0
 20
0.0
 30
0.0
  9
$PUCSORGBACK
 10
0.0
 20
0.0
 30
0.0
  9
$USERI1
 70
     0
  9
$USERI2
 70
     0
  9
$USERI3
 70
     0
  9
$USERI4
 70
     0
  9
$USERI5
 70
     0
  9
$USERR1
 40
0.0
  9
$USERR2
 40
0.0
  9
$USERR3
 40
0.0
  9
$USERR4
 40
0.0
  9
$USERR5
 40
0.0
  9
$WORLDVIEW
 70
     1
  9
$SHADEDGE
 70
     3
  9
$SHADEDIF
 70
    70
  9
$TILEMODE
 70
     1
  9
$MAXACTVP
 70
    64
  9
$PINSBASE
 10
0.0
 20
0.0
 30
0.0
  9
$PLIMCHECK
 70
     0
  9
$PEXTMIN
 10
1.000000000000000E+20
 20
1.000000000000000E+20
 30
1.000000000000000E+20
  9
$PEXTMAX
 10
-1.000000000000000E+20
 20
-1.000000000000000E+20
 30
-1.000000000000000E+20
  9
$PLIMMIN
 10
0.0
 20
0.0
  9
$PLIMMAX
 10
12.0
 20
9.0
  9
$UNITMODE
 70
     0
  9
$VISRETAIN
 70
     1
  9
$PLINEGEN
 70
     0
  9
$PSLTSCALE
 70
     1
  9
$TREEDEPTH
 70
  3020
  9
$CMLSTYLE
  2
Standard
  9
$CMLJUST
 70
     0
  9
$CMLSCALE
 40
1.0
  9
$PROXYGRAPHICS
 70
     1
  9
$MEASUREMENT
 70
     0
  9
$CELWEIGHT
370
    -1
  9
$ENDCAPS
280
     0
  9
$JOINSTYLE
280
     0
  9
$LWDISPLAY
290
     0
  9
$INSUNITS
 70
     4
  9
$HYPERLINKBASE
  1

  9
$STYLESHEET
  1

  9
$XEDIT
290
     1
  9
$CEPSNTYPE
380
     0
  9
$PSTYLEMODE
290
     1
  9
$FINGERPRINTGUID
  2
{566305D6-8A39-CD42-AD91-A9A18E9EEB08}
  9
$VERSIONGUID
  2
{8855E745-883D-D749-9F30-01A150B84D40}
  9
$EXTNAMES
290
     1
  9
$PSVPSCALE
 40
0.0
  9
$OLESTARTUP
290
     0
  9
$SORTENTS
280
   127
  9
$INDEXCTL
280
     0
  9
$HIDETEXT
280
     0
  9
$XCLIPFRAME
280
     2
  9
$HALOGAP
280
     0
  9
$OBSCOLOR
 70
   257
  9
$OBSLTYPE
280
     0
  9
$INTERSECTIONDISPLAY
280
     0
  9
$INTERSECTIONCOLOR
 70
   257
  9
$DIMASSOC
280
     1
  9
$PROJECTNAME
  1

  9
$CAMERADISPLAY
290
     0
  9
$LENSLENGTH
 40
50.0
  9
$CAMERAHEIGHT
 40
0.0
  9
$STEPSPERSEC
 40
2.0
  9
$STEPSIZE
 40
6.0
  9
$3DDWFPREC
 40
2.0
  9
$PSOLWIDTH
 40
0.25
  9
$PSOLHEIGHT
 40
4.0
  9
$LOFTANG1
 40
1.570796326794896
  9
$LOFTANG2
 40
1.570796326794896
  9
$LOFTMAG1
 40
0.0
  9
$LOFTMAG2
 40
0.0
  9
$LOFTPARAM
 70
     7
  9
$LOFTNORMALS
280
     1
  9
$LATITUDE
 40
37.795
  9
$LONGITUDE
 40
-122.394
  9
$NORTHDIRECTION
 40
0.0
  9
$TIMEZONE
 70
 -8000
  9
$LIGHTGLYPHDISPLAY
280
     1
  9
$TILEMODELIGHTSYNCH
280
     1
  9
$CMATERIAL
347
10005
  9
$SOLIDHIST
280
     0
  9
$SHOWHIST
280
     1
  9
$DWFFRAME
280
     2
  9
$DGNFRAME
280
     0
  9
$REALWORLDSCALE
290
     1
  9
$INTERFERECOLOR
 62
     1
  9
$INTERFEREOBJVS
345
10027
  9
$INTERFEREVPVS
346
10024
  9
$CSHADOW
280
     0
  9
$SHADOWPLANELOCATION
 40
0.0
  0
ENDSEC
  0
SECTION
  2
CLASSES
  0
CLASS
  1
ACDBDICTIONARYWDFLT
  2
AcDbDictionaryWithDefault
  3
ObjectDBX Classes
 90
        0
 91
        1
280
     0
281
     0
  0
CLASS
  1
MATERIAL
  2
AcDbMaterial
  3
ObjectDBX Classes
 90
     1153
 91
        3
280
     0
281
     0
  0
CLASS
  1
VISUALSTYLE
  2
AcDbVisualStyle
  3
ObjectDBX Classes
 90
     4095
 91
       24
280
     0
281
     0
  0
CLASS
  1
TABLESTYLE
  2
AcDbTableStyle
  3
ObjectDBX Classes
 90
     4095
 91
        1
280
     0
281
     0
  0
CLASS
  1
SCALE
  2
AcDbScale
  3
ObjectDBX Classes
 90
     1153
 91
       17
280
     0
281
     0
  0
CLASS
  1
MLEADERSTYLE
  2
AcDbMLeaderStyle
  3
ACDB_MLEADERSTYLE_CLASS
 90
     4095
 91
        1
280
     0
281
     0
  0
CLASS
  1
ACDBSECTIONVIEWSTYLE
  2
AcDbSectionViewStyle
  3
ObjectDBX Classes
 90
     1025
 91
        2
280
     0
281
     0
  0
CLASS
  1
ACDBDETAILVIEWSTYLE
  2
AcDbDetailViewStyle
  3
ObjectDBX Classes
 90
     1025
 91
        2
280
     0
281
     0
  0
CLASS
  1
DICTIONARYVAR
  2
AcDbDictionaryVar
  3
ObjectDBX Classes
 90
        0
 91
       36
280
     0
281
     0
  0
CLASS
  1
CELLSTYLEMAP
  2
AcDbCellStyleMap
  3
ObjectDBX Classes
 90
     1152
 91
        3
280
     0
281
     0
  0
CLASS
  1
SORTENTSTABLE
  2
AcDbSortentsTable
  3
ObjectDBX Classes
 90
        0
 91
        1
280
     0
281
     0
  0
ENDSEC
  0
SECTION
  2
TABLES
  0
TABLE
  2
VPORT
  5
8
330
0
100
AcDbSymbolTable
 70
     1
  0
VPORT
  5
10059
330
8
100
AcDbSymbolTableRecord
100
AcDbViewportTableRecord
  2
*Active
 70
     0
 10
0.0
 20
0.0
 11
1.0
 21
1.0
 12
590.7269469493721
 22
248.4591771130749
 13
0.0
 23
0.0
 14
1.0
 24
1.0
 15
0.0
 25
0.0
 16
0.0
 26
0.0
 36
1.0
 17
0.0
 27
0.0
 37
0.0
 40
804.440856859167
 41
2.041514041514041
 42
50.0
 43
0.0
 44
0.0
 50
0.0
 51
0.0
 71
     0
 72
  1000
 73
     1
 74
     3
 75
     0
 76
     0
 77
     0
 78
     0
281
     0
 65
     1
110
0.0
120
0.0
130
0.0
111
1.0
121
0.0
131
0.0
112
0.0
122
1.0
132
0.0
 79
     0
146
0.0
348
10023
 60
     3
 61
     5
292
     1
282
     1
141
0.0
142
0.0
 63
   250
421
  3355443
1001
ACAD_NAV_VCDISPLAY
1070
     1
  0
ENDTAB
  0
TABLE
  2
LTYPE
  5
5
330
0
100
AcDbSymbolTable
 70
     3
  0
LTYPE
  5
14
330
5
100
AcDbSymbolTableRecord
100
AcDbLinetypeTableRecord
  2
BYBLOCK
 70
     0
  3

 72
    65
 73
     0
 40
0.0
  0
LTYPE
  5
15
330
5
100
AcDbSymbolTableRecord
100
AcDbLinetypeTableRecord
  2
BYLAYER
 70
     0
  3

 72
    65
 73
     0
 40
0.0
  0
LTYPE
  5
10001
330
5
100
AcDbSymbolTableRecord
100
AcDbLinetypeTableRecord
  2
Continuous
 70
     0
  3
Solid line
 72
    65
 73
     0
 40
0.0
  0
ENDTAB
  0
TABLE
  2
LAYER
  5
2
102
{ACAD_XDICTIONARY
360
100AA
102
}
330
0
100
AcDbSymbolTable
 70
     3
  0
LAYER
  5
50
102
{ACAD_XDICTIONARY
360
10095
102
}
330
2
100
AcDbSymbolTableRecord
100
AcDbLayerTableRecord
  2
0
 70
     0
 62
     7
  6
Continuous
370
    -3
390
10003
347
10015
348
0
  0
LAYER
  5
100C9
330
2
100
AcDbSymbolTableRecord
100
AcDbLayerTableRecord
  2
Visible
 70
     0
 62
     7
  6
Continuous
370
    50
390
10003
347
10015
348
0
  0
LAYER
  5
100CA
330
2
100
AcDbSymbolTableRecord
100
AcDbLayerTableRecord
  2
Visible Narrow
 70
     0
 62
     7
  6
Continuous
370
    35
390
10003
347
10015
348
0
  0
ENDTAB
  0
TABLE
  2
STYLE
  5
3
330
0
100
AcDbSymbolTable
 70
     1
  0
STYLE
  5
11
330
3
100
AcDbSymbolTableRecord
100
AcDbTextStyleTableRecord
  2
STANDARD
 70
     0
 40
0.0
 41
1.0
 50
0.0
 71
     0
 42
12.0
  3

  4

  0
ENDTAB
  0
TABLE
  2
VIEW
  5
6
330
0
100
AcDbSymbolTable
 70
     3
  0
ENDTAB
  0
TABLE
  2
UCS
  5
7
330
0
100
AcDbSymbolTable
 70
     0
  0
ENDTAB
  0
TABLE
  2
APPID
  5
9
330
0
100
AcDbSymbolTable
 70
     8
  0
APPID
  5
12
330
9
100
AcDbSymbolTableRecord
100
AcDbRegAppTableRecord
  2
ACAD
 70
     0
  0
APPID
  5
10058
330
9
100
AcDbSymbolTableRecord
100
AcDbRegAppTableRecord
  2
ACAD_NAV_VCDISPLAY
 70
     0
  0
APPID
  5
10087
330
9
100
AcDbSymbolTableRecord
100
AcDbRegAppTableRecord
  2
ACAD_EXEMPT_FROM_CAD_STANDARDS
 70
     0
  0
APPID
  5
100CC
330
9
100
AcDbSymbolTableRecord
100
AcDbRegAppTableRecord
  2
ACAD_PSEXT
 70
     0
  0
APPID
  5
100CD
330
9
100
AcDbSymbolTableRecord
100
AcDbRegAppTableRecord
  2
ACAD_DSTYLE_DIMJAG
 70
     0
  0
APPID
  5
100CE
330
9
100
AcDbSymbolTableRecord
100
AcDbRegAppTableRecord
  2
ACAD_DSTYLE_DIMTALN
 70
     0
  0
APPID
  5
100CF
330
9
100
AcDbSymbolTableRecord
100
AcDbRegAppTableRecord
  2
AcAecLayerStandard
 70
     0
  0
APPID
  5
100D0
330
9
100
AcDbSymbolTableRecord
100
AcDbRegAppTableRecord
  2
ACAD_DSTYLE_DIMBREAK
 70
     0
  0
ENDTAB
  0
TABLE
  2
DIMSTYLE
  5
A
330
0
100
AcDbSymbolTable
 70
     3
100
AcDbDimStyleTable
 71
     1
340
10053
  0
DIMSTYLE
105
10053
330
A
100
AcDbSymbolTableRecord
100
AcDbDimStyleTableRecord
  2
Standard
 70
     0
340
11
  0
DIMSTYLE
105
100CB
330
A
100
AcDbSymbolTableRecord
100
AcDbDimStyleTableRecord
  2
ISO-25
 70
     0
  4
in
 41
3.5
 42
2.0
 43
9.899494999999999
 44
2.0
 47
0.1
 48
0.1
 73
     0
 74
     0
 77
     1
 78
    12
 79
     3
140
3.5
141
0.0
143
0.03937
146
0.7140000000000001
147
1.5
171
     4
172
     1
176
   256
177
   256
178
   256
179
     2
271
     2
272
     2
274
     4
283
     0
284
    12
285
    12
286
    12
340
11
1001
ACAD_DSTYLE_DIMBREAK
1070
   391
1040
3.5
1001
ACAD_DSTYLE_DIMJAG
1070
   388
1040
1.5
1001
ACAD_DSTYLE_DIMTALN
1070
   392
1070
     1
  0
ENDTAB
  0
TABLE
  2
BLOCK_RECORD
  5
1
330
0
100
AcDbSymbolTable
 70
     2
  0
BLOCK_RECORD
  5
1F
330
1
100
AcDbSymbolTableRecord
100
AcDbBlockTableRecord
  2
*MODEL_SPACE
340
10055
 70
     0
280
     1
281
     0
  0
BLOCK_RECORD
  5
1B
330
1
100
AcDbSymbolTableRecord
100
AcDbBlockTableRecord
  2
*PAPER_SPACE
340
10056
 70
     0
280
     1
281
     0
  0
ENDTAB
  0
ENDSEC
  0
SECTION
  2
BLOCKS
  0
BLOCK
  5
20
330
1F
100
AcDbEntity
  8
0
100
AcDbBlockBegin
  2
*MODEL_SPACE
 70
     0
 10
0.0
 20
0.0
 30
0.0
  3
*MODEL_SPACE
  1

  0
ENDBLK
  5
21
330
1F
100
AcDbEntity
  8
0
100
AcDbBlockEnd
  0
BLOCK
  5
1C
330
1B
100
AcDbEntity
 67
     1
  8
0
100
AcDbBlockBegin
  2
*PAPER_SPACE
 70
     0
 10
0.0
 20
0.0
 30
0.0
  3
*PAPER_SPACE
  1

  0
ENDBLK
  5
1D
330
1B
100
AcDbEntity
 67
     1
  8
0
100
AcDbBlockEnd
  0
ENDSEC
  0
SECTION
  2
ENTITIES
  0
LWPOLYLINE
  5
100
330
1F
100
AcDbEntity
  8
0
 62
     5
100
AcDbPolyline
 90
       12
 70
     1
 43
0.0
 10
177.7603831152282
 20
335.8091665481623
 10
292.4164929759836
 20
335.5675069884244
 42
-0.2976253317349106
 10
310.7041245659721
 20
323.5687370014341
 10
353.8509693663677
 20
224.72433541501
 42
-0.042672128506074
 10
355.4893100600648
 20
219.8826704840314
 42
-0.1028472370040178
 10
359.9018407239046
 20
97.44262776760786
 42
-0.3661488089483721
 10
330.2657596872478
 20
72.48714829027199
 42
0.1047410647134271
 10
138.8024738184363
 20
72.89069358258348
 42
-0.366148808948367
 10
109.2718524607824
 20
97.97087813903898
 42
-0.1028472370040178
 10
114.2004729854388
 20
220.3912326025958
 42
-0.0426721285060745
 10
115.8592084918482
 20
225.2259483183613
 10
159.4223348496659
 20
323.8875921478681
 42
-0.29762533173491
  0
LWPOLYLINE
  5
101
330
1F
100
AcDbEntity
  8
0
 62
     5
100
AcDbPolyline
 90
        4
 70
     1
 43
0.0
 10
334.7678489209148
 20
183.4779058314842
 10
337.7678422573999
 20
183.4715827749128
 10
337.8310728231145
 20
213.4715161397643
 10
334.8310794866293
 20
213.4778391963358
  0
LWPOLYLINE
  5
102
330
1F
100
AcDbEntity
  8
0
 62
     5
100
AcDbPolyline
 90
        4
 70
     1
 43
0.0
 10
337.637165754923
 20
121.4717204875529
 10
337.7003963206375
 20
151.4716538524045
 10
334.7004029841524
 20
151.4779769089761
 10
334.6371724184378
 20
121.4780435441243
  0
LWPOLYLINE
  5
103
330
1F
100
AcDbEntity
  8
0
 62
     5
100
AcDbPolyline
 90
        4
 70
     1
 43
0.0
 10
219.5741963188861
 20
91.72049401655341
 10
249.5741296837373
 20
91.65726345083873
 10
249.5804527403088
 20
94.65725678732395
 10
219.5805193754572
 20
94.72048735303848
  0
LWPOLYLINE
  5
104
330
1F
100
AcDbEntity
  8
0
 62
     5
100
AcDbPolyline
 90
        4
 70
     1
 43
0.0
 10
292.5920463343639
 20
100.1122957162625
 10
286.5920596613935
 20
100.1249418294054
 10
286.5583366930123
 20
84.12497736815135
 10
292.5583233659827
 20
84.11233125500848
  0
LWPOLYLINE
  5
105
330
1F
100
AcDbEntity
  8
0
 62
     5
100
AcDbPolyline
 90
        4
 70
     1
 43
0.0
 10
299.6267115084343
 20
116.5518237033916
 10
273.6267688714665
 20
116.6066235278274
 10
273.6183381292458
 20
112.6066323529095
 10
299.6182807662133
 20
112.5518325284736
  0
LWPOLYLINE
  5
106
330
1F
100
AcDbEntity
  8
0
 62
     5
100
AcDbPolyline
 90
        4
 70
     1
 43
0.0
 10
134.8315213367716
 20
213.8993763061242
 10
131.8315280002866
 20
213.9056993626957
 10
131.7682974345721
 20
183.9057659978441
 10
134.7682907710573
 20
183.8994429412726
  0
LWPOLYLINE
  5
107
330
1F
100
AcDbEntity
  8
0
 62
     5
100
AcDbPolyline
 90
        4
 70
     1
 43
0.0
 10
179.0464087207401
 20
315.806411581059
 10
179.0169011234065
 20
301.8064426774616
 10
291.0166523521857
 20
301.5703818987942
 10
291.0461599495191
 20
315.5703508023915
  0
LWPOLYLINE
  5
108
330
1F
100
AcDbEntity
  8
0
 62
     5
100
AcDbPolyline
 90
        4
 70
     1
 43
0.0
 10
195.618510218344
 20
112.7710318262169
 10
195.6269409605647
 20
116.7710230011347
 10
169.6269983235975
 20
116.8258228255706
 10
169.6185675813767
 20
112.8258316506526
  0
LWPOLYLINE
  5
109
330
1F
100
AcDbEntity
  8
0
 62
     5
100
AcDbPolyline
 90
        4
 70
     1
 43
0.0
 10
131.6376209320956
 20
121.9059037104843
 10
134.6376142685808
 20
121.8995806539129
 10
134.7008448342951
 20
151.8995140187643
 10
131.7008514978099
 20
151.9058370753358
  0
LWPOLYLINE
  5
110
330
1F
100
AcDbEntity
  8
0
 62
     5
100
AcDbPolyline
 90
        6
 70
     1
 43
0.0
 10
314.5467158518593
 20
156.1042117597101
 10
314.7132629356954
 20
235.1229799888998
 42
0.6315257332933047
 10
304.9395437415419
 20
239.8002743051302
 10
269.6252486930912
 20
211.2307664055239
 42
0.47597050800552
 10
269.5598165233762
 20
180.1862753561686
 10
304.7533670067912
 20
151.4681587611337
 42
0.6315257332933113
  0
LWPOLYLINE
  5
111
330
1F
100
AcDbEntity
  8
0
 62
     5
100
AcDbPolyline
 90
        6
 70
     1
 43
0.0
 10
187.2508455427182
 20
130.8819272716923
 10
281.735489514196
 20
130.6827829130367
 42
0.7061162178205573
 10
285.5414977994365
 20
141.3314686977264
 10
247.193236942036
 20
172.6238450391989
 42
0.3550406252375642
 10
221.9695879644346
 20
172.6770086770925
 10
183.489759134678
 20
141.5465621477501
 42
0.7061162178205632
  0
LWPOLYLINE
  5
112
330
1F
100
AcDbEntity
  8
0
 62
     5
100
AcDbPolyline
 90
        6
 70
     1
 43
0.0
 10
183.7188363755742
 20
250.2329527346947
 10
222.0670972329749
 20
218.9405763932219
 42
0.3550406252375592
 10
247.2907462105764
 20
218.8874127553285
 10
285.7705750403324
 20
250.0178592846709
 42
0.7061162178205536
 10
282.0094886322927
 20
260.6824941607286
 10
187.5248446608145
 20
260.8816385193843
 42
0.7061162178205716
  0
LWPOLYLINE
  5
113
330
1F
100
AcDbEntity
  8
0
 62
     5
100
AcDbPolyline
 90
        6
 70
     1
 43
0.0
 10
164.3207904334685
 20
151.7641471272909
 10
199.6350854819193
 20
180.3336550268971
 42
0.475970508005519
 10
199.7005176516345
 20
211.3781460762524
 10
164.5069671682195
 20
240.0962626712872
 42
0.6315257332933092
 10
154.7136183231516
 20
235.4602096727108
 10
154.5470712393153
 20
156.4414414435211
 42
0.6315257332933077
  0
CIRCLE
  5
114
330
1F
100
AcDbEntity
  8
0
 62
     5
100
AcDbCircle
 10
169.4223126379499
 20
323.8665152926298
 30
0.0
 40
1.499999999999985
  0
CIRCLE
  5
115
330
1F
100
AcDbEntity
  8
0
 62
     5
100
AcDbCircle
 10
300.704146777688
 20
323.5898138566723
 30
0.0
 40
1.499999999999985
  0
CIRCLE
  5
116
330
1F
100
AcDbEntity
  8
0
 62
     5
100
AcDbCircle
 10
120.9319881519363
 20
91.92840123254166
 30
0.0
 40
1.499999999999985
  0
CIRCLE
  5
117
330
1F
100
AcDbEntity
  8
0
 62
     5
100
AcDbCircle
 10
348.2163374036531
 20
91.44935623579284
 30
0.0
 40
1.499999999999985
  0
LWPOLYLINE
  5
118
330
1F
100
AcDbEntity
  8
0
 62
     5
100
AcDbPolyline
 90
        4
 70
     1
 43
0.0
 10
182.5922891135242
 20
100.3441411271486
 10
176.5923024405538
 20
100.3567872402916
 10
176.5585794721728
 20
84.35682277903742
 10
182.5585661451432
 20
84.34417666589457
  0
CIRCLE
  5
119
330
1F
100
AcDbEntity
  8
0
 62
     1
100
AcDbCircle
 10
580.0420303893734
 20
189.1640577845862
 30
0.0
 40
7.5
  0
CIRCLE
  5
120
330
1F
100
AcDbEntity
  8
0
 62
     1
100
AcDbCircle
 10
579.9861767229921
 20
162.6641166456338
 30
0.0
 40
7.5
  0
CIRCLE
  5
121
330
1F
100
AcDbEntity
  8
0
 62
     1
100
AcDbCircle
 10
529.9862877815723
 20
162.7695009218248
 30
0.0
 40
7.5
  0
CIRCLE
  5
122
330
1F
100
AcDbEntity
  8
0
 62
     1
100
AcDbCircle
 10
530.0421414479534
 20
189.2694420607772
 30
0.0
 40
7.5
  0
CIRCLE
  5
123
330
1F
100
AcDbEntity
  8
0
 62
     1
100
AcDbCircle
 10
554.9862322522823
 20
162.7168087837292
 30
0.0
 40
7.5
  0
CIRCLE
  5
124
330
1F
100
AcDbEntity
  8
0
 62
     1
100
AcDbCircle
 10
555.0420859186634
 20
189.2167499226818
 30
0.0
 40
7.5
  0
LWPOLYLINE
  5
125
330
1F
100
AcDbEntity
  8
0
 62
     1
100
AcDbPolyline
 90
       12
 70
     1
 43
0.0
 10
569.9456259883747
 20
143.4352362584252
 10
539.9456926235228
 20
143.4984668241398
 10
539.9583387366657
 20
149.4984534971101
 10
509.9584053718136
 20
149.5616840628247
 42
0.1886792452830182
 10
510.0701127045759
 20
202.56156634073
 10
540.070046069428
 20
202.4983357750155
 10
540.0763691259995
 20
205.4983291115007
 10
570.0763024908513
 20
205.4350985457861
 10
570.06997943428
 20
202.4351052093009
 10
600.0699127991318
 20
202.3718746435861
 42
0.1886792452830187
 10
599.9582054663695
 20
149.3719923656811
 10
569.9582721015175
 20
149.4352229313956
  0
CIRCLE
  5
126
330
1F
100
AcDbEntity
  8
0
 62
     1
100
AcDbCircle
 10
624.3859622894846
 20
115.0704301465898
 30
0.0
 40
7.5
  0
CIRCLE
  5
127
330
1F
100
AcDbEntity
  8
0
 62
     1
100
AcDbCircle
 10
560.8861038628711
 20
115.2042681762373
 30
0.0
 40
7.5
  0
CIRCLE
  5
128
330
1F
100
AcDbEntity
  8
0
 62
     1
100
AcDbCircle
 10
560.83025019649
 20
88.70432703728477
 30
0.0
 40
7.5
  0
LWPOLYLINE
  5
129
330
1F
100
AcDbEntity
  8
0
 62
     1
100
AcDbPolyline
 90
        4
 70
     1
 43
0.0
 10
593.3791813019618
 20
111.8857756163531
 10
590.3791879654767
 20
111.8920986729247
 10
590.3370342550003
 20
91.89214309635667
 10
593.3370275914854
 20
91.88582003978524
  0
CIRCLE
  5
130
330
1F
100
AcDbEntity
  8
0
 62
     1
100
AcDbCircle
 10
624.3301086231034
 20
88.5704890076372
 30
0.0
 40
7.5
  0
LWPOLYLINE
  5
131
330
1F
100
AcDbEntity
  8
0
 62
     1
100
AcDbPolyline
 90
        4
 70
     1
 43
0.0
 10
531.3793194094811
 20
112.0164521179977
 10
528.3793260729959
 20
112.0227751745691
 10
528.3371723625195
 20
92.02281959800121
 10
531.3371656990047
 20
92.01649654142967
  0
LWPOLYLINE
  5
132
330
1F
100
AcDbEntity
  8
0
 62
     1
100
AcDbPolyline
 90
       20
 70
     1
 43
0.0
 10
514.802425537193
 20
75.55131000190408
 10
509.802436643051
 20
75.56184842952325
 42
0.1886792452830193
 10
509.9141439758135
 20
128.5617307074284
 10
514.9141328699555
 20
128.5511922798092
 10
514.9204559265268
 20
131.5511856162944
 10
544.9203892913788
 20
131.4879550505799
 10
544.9140662348075
 20
128.4879617140947
 10
576.9139951573162
 20
128.4205157773325
 10
576.9203182163375
 20
131.4205102761057
 10
606.9202507914296
 20
131.3572797120557
 10
606.9139277324085
 20
128.3572852132824
 10
641.9138505129418
 20
128.2835162188496
 42
0.1886792452830186
 10
641.8021431801795
 20
75.28363394094447
 10
606.8022203996459
 20
75.35740293537742
 10
606.7895742865031
 20
69.35741626240702
 10
576.789641711411
 20
69.42064682645696
 10
576.8022878245538
 20
75.42063349942736
 10
544.802358902045
 20
75.48807943618953
 10
544.7897127889022
 20
69.48809276321913
 10
514.7897794240501
 20
69.55132332893367
  0
LINE
  5
133
330
1F
100
AcDbEntity
  8
0
 62
     1
100
AcDbLine
 10
630.8924393159797
 20
149.306792583986
 30
0.0
 11
647.8924015560624
 21
149.2709619300812
 31
0.0
  0
SPLINE
  5
134
330
1F
100
AcDbEntity
  8
0
 62
     1
100
AcDbSpline
210
0.0
220
0.0
230
1.0
 70
    12
 71
     5
 72
    16
 73
    10
 74
     0
 42
0.000000001
 43
0.0000000001
 40
0.0
 40
0.0
 40
0.0
 40
0.0
 40
0.0
 40
0.0
 40
0.2
 40
0.4
 40
0.6000000000000001
 40
0.8
 40
1.0
 40
1.0
 40
1.0
 40
1.0
 40
1.0
 40
1.0
 10
647.8924015560624
 20
149.2709619300812
 30
0.0
 41
1.0
 10
648.1078165134735
 20
151.2229574730089
 30
0.0
 41
1.0
 10
648.6303776111461
 20
155.1462343501802
 30
0.0
 41
1.0
 10
649.6892971048102
 20
161.0889827145367
 30
0.0
 41
1.0
 10
651.6895768496066
 20
169.1363511602395
 30
0.0
 41
1.0
 10
655.6503272269637
 20
179.5025999805615
 30
0.0
 41
1.0
 10
660.723424152001
 20
188.1960051286809
 30
0.0
 41
1.0
 10
666.1376232434458
 20
195.0544182737262
 30
0.0
 41
1.0
 10
670.5768288763287
 20
199.8011402085196
 30
0.0
 41
1.0
 10
673.004053359535
 20
202.2181520698908
 30
0.0
 41
1.0
  0
LINE
  5
135
330
1F
100
AcDbEntity
  8
0
 62
     1
100
AcDbLine
 10
673.004053359535
 20
202.2181520698908
 30
0.0
 11
631.0041466487422
 21
202.3066748618912
 31
0.0
  0
LINE
  5
136
330
1F
100
AcDbEntity
  8
0
 62
     1
100
AcDbLine
 10
631.0041466487422
 20
202.3066748618912
 30
0.0
 11
630.9693698375991
 21
185.8067115112226
 31
0.0
  0
LINE
  5
137
330
1F
100
AcDbEntity
  8
0
 62
     1
100
AcDbLine
 10
630.9693698375991
 20
185.8067115112226
 30
0.0
 11
627.9693765011139
 21
185.8130345677941
 31
0.0
  0
LINE
  5
138
330
1F
100
AcDbEntity
  8
0
 62
     1
100
AcDbLine
 10
627.9693765011139
 20
185.8130345677941
 30
0.0
 11
627.9272227906375
 21
165.8130789912261
 31
0.0
  0
LINE
  5
139
330
1F
100
AcDbEntity
  8
0
 62
     1
100
AcDbLine
 10
627.9272227906375
 20
165.8130789912261
 30
0.0
 11
630.9272161271227
 21
165.8067559346545
 31
0.0
  0
LINE
  5
140
330
1F
100
AcDbEntity
  8
0
 62
     1
100
AcDbLine
 10
630.9272161271227
 20
165.8067559346545
 30
0.0
 11
630.8924393159797
 21
149.306792583986
 31
0.0
  0
LWPOLYLINE
  5
141
330
1F
100
AcDbEntity
  8
0
 62
     1
100
AcDbPolyline
 90
       12
 70
     1
 43
0.0
 10
515.3066695470637
 20
363.4655914913188
 42
-0.7272727272727261
 10
570.3065473826253
 20
363.3496687875088
 10
570.1126403144338
 20
271.3498731352967
 42
0.4142135623730974
 10
588.0746619939162
 20
253.3119747769567
 10
736.0743332605182
 20
253.0000373194317
 42
0.4142135623730951
 10
754.1122316188581
 20
270.9620589989141
 10
754.3061386870496
 20
362.9618546511261
 42
-0.7272727272727254
 10
809.3060165226107
 20
362.8459319473162
 42
-0.1665660139498493
 10
809.0857633853719
 20
258.3461640597492
 42
-0.292088635528497
 10
757.7408023103852
 20
221.9543022583585
 42
0.1044584369573128
 10
566.2775164415724
 20
222.3578475506702
 42
-0.2920886355284979
 10
515.0864164098246
 20
258.9658236037519
 42
-0.166566013949849
  0
LWPOLYLINE
  5
142
330
1F
100
AcDbEntity
  8
0
 62
     1
100
AcDbPolyline
 90
        4
 70
     1
 43
0.0
 10
562.2433333941931
 20
333.3665969093599
 10
562.3065639599077
 20
363.3665302742118
 10
559.3065706234223
 20
363.3728533307832
 10
559.2433400577079
 20
333.3729199659315
  0
LWPOLYLINE
  5
143
330
1F
100
AcDbEntity
  8
0
 62
     1
100
AcDbPolyline
 90
        4
 70
     1
 43
0.0
 10
647.0555619985938
 20
244.1876413211248
 10
647.0492389420227
 20
241.1876479846398
 10
677.0491723068743
 20
241.1244174189252
 10
677.0554953634459
 20
244.1244107554104
  0
LWPOLYLINE
  5
144
330
1F
100
AcDbEntity
  8
0
 62
     1
100
AcDbPolyline
 90
        4
 70
     1
 43
0.0
 10
562.175887457431
 20
301.3666679868513
 10
559.1758941209458
 20
301.3729910434228
 10
559.1126635552313
 20
271.3730576785712
 10
562.1126568917165
 20
271.3667346219996
  0
LWPOLYLINE
  5
145
330
1F
100
AcDbEntity
  8
0
 62
     1
100
AcDbPolyline
 90
        4
 70
     1
 43
0.0
 10
714.067313053083
 20
249.6920955753749
 10
714.0333793161492
 20
233.5921313362376
 10
720.1333657670028
 20
233.5792744545424
 10
720.167299503937
 20
249.6792386936793
  0
LWPOLYLINE
  5
146
330
1F
100
AcDbEntity
  8
0
 62
     1
100
AcDbPolyline
 90
        4
 70
     1
 43
0.0
 10
762.17544560729
 20
300.9451308770628
 10
762.1122150415755
 20
270.9451975122109
 10
765.1122083780607
 20
270.9388744556395
 10
765.1754389437752
 20
300.9388078204913
  0
LWPOLYLINE
  5
147
330
1F
100
AcDbEntity
  8
0
 62
     1
100
AcDbPolyline
 90
        4
 70
     1
 43
0.0
 10
765.2428848805373
 20
332.9387367429998
 10
765.306115446252
 20
362.9386701078516
 10
762.3061221097668
 20
362.9449931644231
 10
762.2428915440522
 20
332.9450597995714
  0
LINE
  5
148
330
1F
100
AcDbEntity
  8
0
 62
     1
100
AcDbLine
 10
603.9659411449846
 20
249.9241551585421
 30
0.0
 11
603.9675561643228
 21
249.924203927166
 31
0.0
  0
LINE
  5
149
330
1F
100
AcDbEntity
  8
0
 62
     1
100
AcDbLine
 10
603.9675561643228
 20
249.924203927166
 30
0.0
 11
603.9675560543598
 21
249.9241517548135
 31
0.0
  0
LINE
  5
150
330
1F
100
AcDbEntity
  8
0
 62
     1
100
AcDbLine
 10
603.9675560543598
 20
249.9241517548135
 30
0.0
 11
610.0675425052125
 21
249.9112948731181
 31
0.0
  0
LINE
  5
151
330
1F
100
AcDbEntity
  8
0
 62
     1
100
AcDbLine
 10
610.0675425052125
 20
249.9112948731181
 30
0.0
 11
610.0336090528448
 21
233.8114656468852
 31
0.0
  0
LINE
  5
152
330
1F
100
AcDbEntity
  8
0
 62
     1
100
AcDbLine
 10
610.0336090528448
 20
233.8114656468852
 30
0.0
 11
603.9336226019915
 21
233.8243225285805
 31
0.0
  0
LINE
  5
153
330
1F
100
AcDbEntity
  8
0
 62
     1
100
AcDbLine
 10
603.9336226019915
 20
233.8243225285805
 30
0.0
 11
603.9675560543598
 21
249.9241517548135
 31
0.0
  0
LINE
  5
154
330
1F
100
AcDbEntity
  8
0
 62
     1
100
AcDbLine
 10
603.9675560543598
 20
249.9241517548135
 30
0.0
 11
603.9659411449846
 21
249.9241551585421
 31
0.0
  0
CIRCLE
  5
155
330
1F
100
AcDbEntity
  8
0
 62
     5
100
AcDbCircle
 10
148.0638037068632
 20
383.3009398018739
 30
0.0
 40
2.000000000000028
  0
CIRCLE
  5
156
330
1F
100
AcDbEntity
  8
0
 62
     5
100
AcDbCircle
 10
115.6520508184253
 20
501.619622748517
 30
0.0
 40
5.0
  0
LWPOLYLINE
  5
157
330
1F
100
AcDbEntity
  8
0
 62
     5
100
AcDbPolyline
 90
        8
 70
     1
 43
0.0
 10
140.1987133497605
 20
447.3176591310821
 10
138.1987177921037
 20
447.3218745021297
 10
108.3083029796607
 20
499.3465138794485
 42
-0.7999999999999997
 10
121.3144628239905
 20
506.8191175825595
 10
158.1986733686717
 20
447.2797207916532
 10
156.1986778110149
 20
447.2839361627008
 10
156.057462880919
 20
380.2840849811982
 42
-0.2499997559937715
 10
140.0574984196646
 20
380.3178079495793
  0
LWPOLYLINE
  5
10061
330
1F
100
AcDbEntity
  8
0
  6
Continuous
 62
     5
100
AcDbPolyline
 90
        4
 70
     0
 43
0.0
 10
439.3570780585832
 20
52.94332627807307
 10
89.46536020818895
 20
52.94332627807307
 10
89.46536020818895
 20
524.7125628367921
 10
439.3570780585832
 20
524.7125628367921
  0
LWPOLYLINE
  5
10062
330
1F
100
AcDbEntity
  8
0
  6
Continuous
 62
     1
100
AcDbPolyline
 90
        4
 70
     0
 43
0.0
 10
844.8338233943177
 20
52.94332627807307
 10
494.9421055439232
 20
52.94332627807307
 10
494.9421055439232
 20
524.7125628367921
 10
844.8338233943177
 20
524.7125628367921
  0
CIRCLE
  5
10063
330
1F
100
AcDbEntity
  8
0
 62
     1
100
AcDbCircle
 10
766.1909088551002
 20
115.0704301465898
 30
0.0
 40
7.5
  0
CIRCLE
  5
10064
330
1F
100
AcDbEntity
  8
0
 62
     1
100
AcDbCircle
 10
702.6910504284868
 20
115.2042681762373
 30
0.0
 40
7.5
  0
CIRCLE
  5
10065
330
1F
100
AcDbEntity
  8
0
 62
     1
100
AcDbCircle
 10
702.6351967621057
 20
88.70432703728477
 30
0.0
 40
7.5
  0
LWPOLYLINE
  5
10066
330
1F
100
AcDbEntity
  8
0
 62
     1
100
AcDbPolyline
 90
        4
 70
     1
 43
0.0
 10
735.1841278675776
 20
111.8857756163531
 10
732.1841345310923
 20
111.8920986729247
 10
732.1419808206159
 20
91.89214309635667
 10
735.1419741571011
 20
91.88582003978524
  0
CIRCLE
  5
10067
330
1F
100
AcDbEntity
  8
0
 62
     1
100
AcDbCircle
 10
766.135055188719
 20
88.5704890076372
 30
0.0
 40
7.5
  0
LWPOLYLINE
  5
10068
330
1F
100
AcDbEntity
  8
0
 62
     1
100
AcDbPolyline
 90
        4
 70
     1
 43
0.0
 10
673.1842659750967
 20
112.0164521179977
 10
670.1842726386115
 20
112.0227751745691
 10
670.1421189281351
 20
92.02281959800121
 10
673.1421122646203
 20
92.01649654142967
  0
LWPOLYLINE
  5
10069
330
1F
100
AcDbEntity
  8
0
 62
     1
100
AcDbPolyline
 90
       20
 70
     1
 43
0.0
 10
656.6073721028086
 20
75.55131000190408
 10
651.6073832086666
 20
75.56184842952325
 42
0.1886792452830193
 10
651.7190905414292
 20
128.5617307074284
 10
656.7190794355711
 20
128.5511922798092
 10
656.7254024921425
 20
131.5511856162944
 10
686.7253358569946
 20
131.4879550505799
 10
686.7190128004232
 20
128.4879617140947
 10
718.7189417229318
 20
128.4205157773325
 10
718.7252647819531
 20
131.4205102761057
 10
748.7251973570452
 20
131.3572797120557
 10
748.7188742980241
 20
128.3572852132824
 10
783.7187970785574
 20
128.2835162188496
 42
0.1886792452830186
 10
783.6070897457951
 20
75.28363394094447
 10
748.6071669652616
 20
75.35740293537742
 10
748.5945208521187
 20
69.35741626240702
 10
718.5945882770266
 20
69.42064682645696
 10
718.6072343901695
 20
75.42063349942736
 10
686.6073054676607
 20
75.48807943618953
 10
686.5946593545178
 20
69.48809276321913
 10
656.5947259896658
 20
69.55132332893367
  0
LINE
  5
1006A
330
1F
100
AcDbEntity
  8
0
 62
     1
100
AcDbLine
 10
681.9545371900275
 20
149.306792583986
 30
0.0
 11
698.9544994301103
 21
149.2709619300812
 31
0.0
  0
SPLINE
  5
1006B
330
1F
100
AcDbEntity
  8
0
 62
     1
100
AcDbSpline
210
0.0
220
0.0
230
1.0
 70
    12
 71
     5
 72
    16
 73
    10
 74
     0
 42
0.000000001
 43
0.0000000001
 40
0.0
 40
0.0
 40
0.0
 40
0.0
 40
0.0
 40
0.0
 40
0.2
 40
0.4
 40
0.6000000000000001
 40
0.8
 40
1.0
 40
1.0
 40
1.0
 40
1.0
 40
1.0
 40
1.0
 10
698.9544994301103
 20
149.2709619300812
 30
0.0
 41
1.0
 10
699.1699143875213
 20
151.2229574730089
 30
0.0
 41
1.0
 10
699.6924754851939
 20
155.1462343501802
 30
0.0
 41
1.0
 10
700.751394978858
 20
161.0889827145367
 30
0.0
 41
1.0
 10
702.7516747236544
 20
169.1363511602395
 30
0.0
 41
1.0
 10
706.7124251010114
 20
179.5025999805615
 30
0.0
 41
1.0
 10
711.7855220260488
 20
188.1960051286809
 30
0.0
 41
1.0
 10
717.1997211174936
 20
195.0544182737262
 30
0.0
 41
1.0
 10
721.6389267503765
 20
199.8011402085196
 30
0.0
 41
1.0
 10
724.0661512335829
 20
202.2181520698908
 30
0.0
 41
1.0
  0
LINE
  5
1006C
330
1F
100
AcDbEntity
  8
0
 62
     1
100
AcDbLine
 10
724.0661512335829
 20
202.2181520698908
 30
0.0
 11
682.06624452279
 21
202.3066748618912
 31
0.0
  0
LINE
  5
1006D
330
1F
100
AcDbEntity
  8
0
 62
     1
100
AcDbLine
 10
682.06624452279
 20
202.3066748618912
 30
0.0
 11
682.031467711647
 21
185.8067115112226
 31
0.0
  0
LINE
  5
1006E
330
1F
100
AcDbEntity
  8
0
 62
     1
100
AcDbLine
 10
682.031467711647
 20
185.8067115112226
 30
0.0
 11
679.0314743751618
 21
185.8130345677941
 31
0.0
  0
LINE
  5
1006F
330
1F
100
AcDbEntity
  8
0
 62
     1
100
AcDbLine
 10
679.0314743751618
 20
185.8130345677941
 30
0.0
 11
678.9893206646853
 21
165.8130789912261
 31
0.0
  0
LINE
  5
10070
330
1F
100
AcDbEntity
  8
0
 62
     1
100
AcDbLine
 10
678.9893206646853
 20
165.8130789912261
 30
0.0
 11
681.9893140011705
 21
165.8067559346545
 31
0.0
  0
LINE
  5
10071
330
1F
100
AcDbEntity
  8
0
 62
     1
100
AcDbLine
 10
681.9893140011705
 20
165.8067559346545
 30
0.0
 11
681.9545371900275
 21
149.306792583986
 31
0.0
  0
LINE
  5
10072
330
1F
100
AcDbEntity
  8
0
 62
     1
100
AcDbLine
 10
731.3221234899536
 20
149.306792583986
 30
0.0
 11
748.3220857300365
 21
149.2709619300812
 31
0.0
  0
SPLINE
  5
10073
330
1F
100
AcDbEntity
  8
0
 62
     1
100
AcDbSpline
210
0.0
220
0.0
230
1.0
 70
    12
 71
     5
 72
    16
 73
    10
 74
     0
 42
0.000000001
 43
0.0000000001
 40
0.0
 40
0.0
 40
0.0
 40
0.0
 40
0.0
 40
0.0
 40
0.2
 40
0.4
 40
0.6000000000000001
 40
0.8
 40
1.0
 40
1.0
 40
1.0
 40
1.0
 40
1.0
 40
1.0
 10
748.3220857300365
 20
149.2709619300812
 30
0.0
 41
1.0
 10
748.5375006874475
 20
151.2229574730089
 30
0.0
 41
1.0
 10
749.0600617851201
 20
155.1462343501802
 30
0.0
 41
1.0
 10
750.1189812787842
 20
161.0889827145367
 30
0.0
 41
1.0
 10
752.1192610235806
 20
169.1363511602395
 30
0.0
 41
1.0
 10
756.0800114009376
 20
179.5025999805615
 30
0.0
 41
1.0
 10
761.153108325975
 20
188.1960051286809
 30
0.0
 41
1.0
 10
766.5673074174198
 20
195.0544182737262
 30
0.0
 41
1.0
 10
771.0065130503027
 20
199.8011402085196
 30
0.0
 41
1.0
 10
773.4337375335091
 20
202.2181520698908
 30
0.0
 41
1.0
  0
LINE
  5
10074
330
1F
100
AcDbEntity
  8
0
 62
     1
100
AcDbLine
 10
773.4337375335091
 20
202.2181520698908
 30
0.0
 11
731.4338308227162
 21
202.3066748618912
 31
0.0
  0
LINE
  5
10075
330
1F
100
AcDbEntity
  8
0
 62
     1
100
AcDbLine
 10
731.4338308227162
 20
202.3066748618912
 30
0.0
 11
731.3990540115732
 21
185.8067115112226
 31
0.0
  0
LINE
  5
10076
330
1F
100
AcDbEntity
  8
0
 62
     1
100
AcDbLine
 10
731.3990540115732
 20
185.8067115112226
 30
0.0
 11
728.3990606750879
 21
185.8130345677941
 31
0.0
  0
LINE
  5
10077
330
1F
100
AcDbEntity
  8
0
 62
     1
100
AcDbLine
 10
728.3990606750879
 20
185.8130345677941
 30
0.0
 11
728.3569069646115
 21
165.8130789912261
 31
0.0
  0
LINE
  5
10078
330
1F
100
AcDbEntity
  8
0
 62
     1
100
AcDbLine
 10
728.3569069646115
 20
165.8130789912261
 30
0.0
 11
731.3569003010967
 21
165.8067559346545
 31
0.0
  0
LINE
  5
10079
330
1F
100
AcDbEntity
  8
0
 62
     1
100
AcDbLine
 10
731.3569003010967
 20
165.8067559346545
 30
0.0
 11
731.3221234899536
 21
149.306792583986
 31
0.0
  0
LINE
  5
1007A
330
1F
100
AcDbEntity
  8
0
 62
     1
100
AcDbLine
 10
780.6897097898835
 20
149.306792583986
 30
0.0
 11
797.6896720299663
 21
149.2709619300812
 31
0.0
  0
SPLINE
  5
1007B
330
1F
100
AcDbEntity
  8
0
 62
     1
100
AcDbSpline
210
0.0
220
0.0
230
1.0
 70
    12
 71
     5
 72
    16
 73
    10
 74
     0
 42
0.000000001
 43
0.0000000001
 40
0.0
 40
0.0
 40
0.0
 40
0.0
 40
0.0
 40
0.0
 40
0.2
 40
0.4
 40
0.6000000000000001
 40
0.8
 40
1.0
 40
1.0
 40
1.0
 40
1.0
 40
1.0
 40
1.0
 10
797.6896720299663
 20
149.2709619300812
 30
0.0
 41
1.0
 10
797.9050869873773
 20
151.2229574730089
 30
0.0
 41
1.0
 10
798.42764808505
 20
155.1462343501802
 30
0.0
 41
1.0
 10
799.4865675787139
 20
161.0889827145367
 30
0.0
 41
1.0
 10
801.4868473235104
 20
169.1363511602395
 30
0.0
 41
1.0
 10
805.4475977008674
 20
179.5025999805615
 30
0.0
 41
1.0
 10
810.5206946259048
 20
188.1960051286809
 30
0.0
 41
1.0
 10
815.9348937173495
 20
195.0544182737262
 30
0.0
 41
1.0
 10
820.3740993502325
 20
199.8011402085196
 30
0.0
 41
1.0
 10
822.8013238334389
 20
202.2181520698908
 30
0.0
 41
1.0
  0
LINE
  5
1007C
330
1F
100
AcDbEntity
  8
0
 62
     1
100
AcDbLine
 10
822.8013238334389
 20
202.2181520698908
 30
0.0
 11
780.801417122646
 21
202.3066748618912
 31
0.0
  0
LINE
  5
1007D
330
1F
100
AcDbEntity
  8
0
 62
     1
100
AcDbLine
 10
780.801417122646
 20
202.3066748618912
 30
0.0
 11
780.766640311503
 21
185.8067115112226
 31
0.0
  0
LINE
  5
1007E
330
1F
100
AcDbEntity
  8
0
 62
     1
100
AcDbLine
 10
780.766640311503
 20
185.8067115112226
 30
0.0
 11
777.7666469750178
 21
185.8130345677941
 31
0.0
  0
LINE
  5
1007F
330
1F
100
AcDbEntity
  8
0
 62
     1
100
AcDbLine
 10
777.7666469750178
 20
185.8130345677941
 30
0.0
 11
777.7244932645413
 21
165.8130789912261
 31
0.0
  0
LINE
  5
10080
330
1F
100
AcDbEntity
  8
0
 62
     1
100
AcDbLine
 10
777.7244932645413
 20
165.8130789912261
 30
0.0
 11
780.7244866010266
 21
165.8067559346545
 31
0.0
  0
LINE
  5
10081
330
1F
100
AcDbEntity
  8
0
 62
     1
100
AcDbLine
 10
780.7244866010266
 20
165.8067559346545
 30
0.0
 11
780.6897097898835
 21
149.306792583986
 31
0.0
  0
LINE
  5
10082
330
1F
100
AcDbEntity
  8
0
  6
Continuous
 62
     1
100
AcDbLine
 10
844.8338233943177
 20
52.94332627807307
 30
0.0
 11
844.8338233943177
 21
524.7125628367921
 31
0.0
  0
CIRCLE
  5
10083
330
1F
100
AcDbEntity
  8
0
 62
     5
100
AcDbCircle
 10
188.0660187281713
 20
383.3009398018739
 30
0.0
 40
2.000000000000028
  0
CIRCLE
  5
10084
330
1F
100
AcDbEntity
  8
0
 62
     5
100
AcDbCircle
 10
155.6542658397334
 20
501.619622748517
 30
0.0
 40
5.0
  0
LWPOLYLINE
  5
10085
330
1F
100
AcDbEntity
  8
0
 62
     5
100
AcDbPolyline
 90
        8
 70
     1
 43
0.0
 10
180.2009283710686
 20
447.3176591310821
 10
178.2009328134118
 20
447.3218745021297
 10
148.3105180009688
 20
499.3465138794485
 42
-0.7999999999999997
 10
161.3166778452986
 20
506.8191175825595
 10
198.2008883899798
 20
447.2797207916532
 10
196.200892832323
 20
447.2839361627008
 10
196.0596779022271
 20
380.2840849811982
 42
-0.2499997559937715
 10
180.0597134409727
 20
380.3178079495793
  0
LINE
  5
10086
330
1F
100
AcDbEntity
  8
0
  6
Continuous
 62
     5
100
AcDbLine
 10
439.3570780585832
 20
52.94332627807307
 30
0.0
 11
439.3570780585832
 21
524.7125628367921
 31
0.0
  0
TEXT
  5
100A3
330
1F
100
AcDbEntity
  8
0
  6
Continuous
 62
     5
100
AcDbText
 10
192.3420914134221
 20
488.4413636982644
 30
0.0
 40
12.0
  1
Compensato betulla 6mm
100
AcDbText
  0
TEXT
  5
100A4
330
1F
100
AcDbEntity
  8
0
  6
Continuous
 62
     1
100
AcDbText
 10
520.9309169417865
 20
494.5066002277708
 30
0.0
 40
12.0
  1
Compesato betulla 3mm
100
AcDbText
  0
TEXT
  5
100A5
330
1F
100
AcDbEntity
  8
0
  6
Continuous
 62
     5
100
AcDbText
 10
250.8353500963894
 20
465.9895495777309
 30
0.0
 40
12.0
  1
Birch plywood 6mm
100
AcDbText
  0
TEXT
  5
100A6
330
1F
100
AcDbEntity
  8
0
  6
Continuous
 62
     1
100
AcDbText
 10
568.0085279705053
 20
469.1404600728092
 30
0.0
 40
12.0
  1
Birch plywood 3mm
100
AcDbText
  0
LINE
  5
1015C
330
1F
100
AcDbEntity
  8
Visible
100
AcDbLine
 10
326.2267471111832
 20
436.8788988612581
 30
-90.91883249468992
 11
331.883601111183
 21
433.6213328612581
 31
-86.29408749468993
210
0.7071067811864428
220
-0.4071957137923946
230
0.5780931159158106
  0
LINE
  5
1015D
330
1F
100
AcDbEntity
  8
Visible
100
AcDbLine
 10
326.2267471111832
 20
436.8788988612581
 30
-90.91883249468992
 11
326.2267471111832
 21
434.4357248612581
 31
-92.63974949468993
210
0.7071067811864428
220
-0.4071957137923946
230
0.5780931159158106
  0
LINE
  5
1015E
330
1F
100
AcDbEntity
  8
Visible
100
AcDbLine
 10
290.8714071111831
 20
410.0039818612581
 30
-52.76468649468992
 11
285.214553111183
 21
413.2615468612581
 31
-57.38943149468993
210
0.7071067811864428
220
-0.4071957137923946
230
0.5780931159158106
  0
LINE
  5
1015F
330
1F
100
AcDbEntity
  8
Visible
100
AcDbLine
 10
374.354603111183
 20
362.2027678612582
 30
15.09838750531008
 11
414.8917501111831
 21
385.5465578612582
 31
-18.04264049468992
210
0.7071067811864428
220
-0.4071957137923946
230
0.5780931159158106
  0
ARC
  5
10160
330
1F
100
AcDbEntity
  8
Visible
100
AcDbCircle
 10
-407.8206821111828
 20
-243.8432735691169
 30
304.8124140866594
 40
10.0
210
0.0000000000000003
220
0.8175471248425399
230
0.5758617009853118
100
AcDbArc
 50
134.9999999999958
 51
201.2973540000021
  0
LINE
  5
10161
330
1F
100
AcDbEntity
  8
Visible
100
AcDbLine
 10
417.137762111183
 20
391.7100918612582
 30
-26.79296949468993
 11
397.551555111183
 21
420.6430418612582
 31
-67.86889149468994
210
0.7071067811864428
220
-0.4071957137923946
230
0.5780931159158106
  0
ARC
  5
10162
330
1F
100
AcDbEntity
  8
Visible
100
AcDbCircle
 10
-383.5759351111827
 20
-292.2701115691168
 30
304.8124140866593
 40
15.00000000000699
210
0.0000000000000003
220
0.8175471248425399
230
0.5758617009853118
100
AcDbArc
 50
201.2973540000021
 51
211.0711560000013
  0
ARC
  5
10163
330
1F
100
AcDbEntity
  8
Visible
100
AcDbCircle
 10
-267.529631111183
 20
-222.3461605691168
 30
304.8124140866594
 40
150.4846988381934
210
0.0000000000000003
220
0.8175471248425399
230
0.5758617009853118
100
AcDbArc
 50
211.0711560000013
 51
234.5594229999993
  0
ARC
  5
10164
330
1F
100
AcDbEntity
  8
Visible
100
AcDbCircle
 10
-346.0915591111828
 20
-332.7278945691169
 30
304.8124140866594
 40
14.99999999999973
210
0.0000000000000003
220
0.8175471248425399
230
0.5758617009853118
100
AcDbArc
 50
234.5594229999993
 51
314.9999999999958
  0
ARC
  5
10165
330
1F
100
AcDbEntity
  8
Visible
100
AcDbCircle
 10
141.8397791111827
 20
-469.2870295691168
 30
-304.8124140866593
 40
231.0032373827991
210
-0.0000000000000003
220
-0.8175471248425399
230
-0.5758617009853118
100
AcDbArc
 50
33.0411629999988
 51
56.95883700000059
  0
ARC
  5
10166
330
1F
100
AcDbEntity
  8
Visible
100
AcDbCircle
 10
-278.3989141111829
 20
-265.0352495691168
 30
304.8124140866593
 40
14.99999999999975
210
0.0000000000000003
220
0.8175471248425399
230
0.5758617009853118
100
AcDbArc
 50
314.9999999999958
 51
35.44057699999724
  0
ARC
  5
10167
330
1F
100
AcDbEntity
  8
Visible
100
AcDbCircle
 10
-388.7806481111828
 20
-343.5971785691169
 30
304.8124140866594
 40
150.484698838195
210
0.0000000000000003
220
0.8175471248425399
230
0.5758617009853118
100
AcDbArc
 50
35.44057699999724
 51
58.92884399999638
  0
ARC
  5
10168
330
1F
100
AcDbEntity
  8
Visible
100
AcDbCircle
 10
-318.8566971111831
 20
-227.5508735691168
 30
304.8124140866593
 40
15.00000000001034
210
0.0000000000000003
220
0.8175471248425399
230
0.5758617009853118
100
AcDbArc
 50
58.92884399999638
 51
68.70264600000493
  0
LINE
  5
10169
330
1F
100
AcDbEntity
  8
Visible
100
AcDbLine
 10
313.408574111183
 20
372.1883218612582
 30
0.921960505310075
 11
363.651454111183
 21
360.9093748612581
 31
16.93460850531007
210
0.7071067811864428
220
-0.4071957137923946
230
0.5780931159158106
  0
ARC
  5
1016A
330
1F
100
AcDbEntity
  8
Visible
100
AcDbCircle
 10
-367.283536111183
 20
-203.3061265691168
 30
304.8124140866594
 40
10.0
210
0.0000000000000003
220
0.8175471248425399
230
0.5758617009853118
100
AcDbArc
 50
68.70264600000493
 51
134.9999999999958
  0
LINE
  5
1016B
330
1F
100
AcDbEntity
  8
Visible
100
AcDbLine
 10
304.4670621111832
 20
383.8509578612582
 30
-15.63540749468992
 11
305.527722111183
 21
384.4617508612582
 31
-16.50254749468992
210
0.7071067811864428
220
-0.4071957137923946
230
0.5780931159158106
  0
LINE
  5
1016C
330
1F
100
AcDbEntity
  8
Visible
100
AcDbLine
 10
305.527722111183
 20
384.4617508612582
 30
-16.50254749468992
 11
316.1343231111832
 21
378.3538148612582
 31
-7.831150494689929
210
0.7071067811864428
220
-0.4071957137923946
230
0.5780931159158106
  0
LINE
  5
1016D
330
1F
100
AcDbEntity
  8
Visible
100
AcDbLine
 10
316.1343231111832
 20
378.3538148612582
 30
-7.831150494689929
 11
315.0736631111831
 21
377.7430218612582
 31
-6.964010494689922
210
0.7071067811864428
220
-0.4071957137923946
230
0.5780931159158106
  0
LINE
  5
1016E
330
1F
100
AcDbEntity
  8
Visible
100
AcDbLine
 10
315.0736631111831
 20
377.7430218612582
 30
-6.964010494689922
 11
304.4670621111832
 21
383.8509578612582
 31
-15.63540749468992
210
0.7071067811864428
220
-0.4071957137923946
230
0.5780931159158106
  0
LINE
  5
1016F
330
1F
100
AcDbEntity
  8
Visible
100
AcDbLine
 10
293.1533531111831
 20
390.3660888612582
 30
-24.88489749468993
 11
282.5467511111831
 21
396.4740248612582
 31
-33.55629449468992
210
0.7071067811864428
220
-0.4071957137923946
230
0.5780931159158106
  0
LINE
  5
10170
330
1F
100
AcDbEntity
  8
Visible
100
AcDbLine
 10
282.5467511111831
 20
396.4740248612582
 30
-33.55629449468992
 11
283.6074121111831
 21
397.0848178612582
 31
-34.42343349468993
210
0.7071067811864428
220
-0.4071957137923946
230
0.5780931159158106
  0
LINE
  5
10171
330
1F
100
AcDbEntity
  8
Visible
100
AcDbLine
 10
283.6074121111831
 20
397.0848178612582
 30
-34.42343349468993
 11
294.214013111183
 21
390.9768828612582
 31
-25.75203749468992
210
0.7071067811864428
220
-0.4071957137923946
230
0.5780931159158106
  0
LINE
  5
10172
330
1F
100
AcDbEntity
  8
Visible
100
AcDbLine
 10
294.214013111183
 20
390.9768828612582
 30
-25.75203749468992
 11
293.1533531111831
 21
390.3660888612582
 31
-24.88489749468993
210
0.7071067811864428
220
-0.4071957137923946
230
0.5780931159158106
  0
LINE
  5
10173
330
1F
100
AcDbEntity
  8
Visible
100
AcDbLine
 10
303.052848111183
 20
420.4985718612581
 30
-67.66378849468992
 11
313.6594501111831
 21
426.6065078612582
 31
-76.33518549468992
210
0.7071067811864428
220
-0.4071957137923946
230
0.5780931159158106
  0
LINE
  5
10174
330
1F
100
AcDbEntity
  8
Visible
100
AcDbLine
 10
313.6594501111831
 20
426.6065078612582
 30
-76.33518549468992
 11
314.720110111183
 21
425.9957138612581
 31
-75.46804549468993
210
0.7071067811864428
220
-0.4071957137923946
230
0.5780931159158106
  0
LINE
  5
10175
330
1F
100
AcDbEntity
  8
Visible
100
AcDbLine
 10
314.720110111183
 20
425.9957138612581
 30
-75.46804549468993
 11
304.113509111183
 21
419.8877778612581
 31
-66.79664849468991
210
0.7071067811864428
220
-0.4071957137923946
230
0.5780931159158106
  0
LINE
  5
10176
330
1F
100
AcDbEntity
  8
Visible
100
AcDbLine
 10
304.113509111183
 20
419.8877778612581
 30
-66.79664849468991
 11
303.052848111183
 21
420.4985718612581
 31
-67.66378849468992
210
0.7071067811864428
220
-0.4071957137923946
230
0.5780931159158106
  0
LINE
  5
10177
330
1F
100
AcDbEntity
  8
Visible
100
AcDbLine
 10
292.992727111183
 20
411.2255688612582
 30
-54.49896549468992
 11
290.8714071111831
 21
410.0039818612581
 31
-52.76468649468992
210
0.7071067811864428
220
-0.4071957137923946
230
0.5780931159158106
  0
LINE
  5
10178
330
1F
100
AcDbEntity
  8
Visible
100
AcDbLine
 10
285.214553111183
 20
413.2615468612581
 30
-57.38943149468993
 11
287.335873111183
 21
414.4831338612581
 31
-59.12371049468993
210
0.7071067811864428
220
-0.4071957137923946
230
0.5780931159158106
  0
LINE
  5
10179
330
1F
100
AcDbEntity
  8
Visible
100
AcDbLine
 10
287.335873111183
 20
414.4831338612581
 30
-59.12371049468993
 11
292.992727111183
 21
411.2255688612582
 31
-54.49896549468992
210
0.7071067811864428
220
-0.4071957137923946
230
0.5780931159158106
  0
LINE
  5
1017A
330
1F
100
AcDbEntity
  8
Visible
100
AcDbLine
 10
303.4064021111831
 20
410.5222768612581
 30
-53.50050649468992
 11
294.214013111183
 21
405.2287328612581
 31
-45.98529649468992
210
0.7071067811864428
220
-0.4071957137923946
230
0.5780931159158106
  0
LINE
  5
1017B
330
1F
100
AcDbEntity
  8
Visible
100
AcDbLine
 10
294.214013111183
 20
405.2287328612581
 30
-45.98529649468992
 11
292.7998001111832
 21
406.0431238612581
 31
-47.14148249468992
210
0.7071067811864428
220
-0.4071957137923946
230
0.5780931159158106
  0
LINE
  5
1017C
330
1F
100
AcDbEntity
  8
Visible
100
AcDbLine
 10
292.7998001111832
 20
406.0431238612581
 30
-47.14148249468992
 11
301.9921881111832
 21
411.3366678612581
 31
-54.65669349468992
210
0.7071067811864428
220
-0.4071957137923946
230
0.5780931159158106
  0
LINE
  5
1017D
330
1F
100
AcDbEntity
  8
Visible
100
AcDbLine
 10
301.9921881111832
 20
411.3366678612581
 30
-54.65669349468992
 11
303.4064021111831
 21
410.5222768612581
 31
-53.50050649468992
210
0.7071067811864428
220
-0.4071957137923946
230
0.5780931159158106
  0
LINE
  5
1017E
330
1F
100
AcDbEntity
  8
Visible
100
AcDbLine
 10
387.905663111183
 20
419.6841808612582
 30
-66.50760249468992
 11
386.845002111183
 21
419.0733868612581
 31
-65.64046249468993
210
0.7071067811864428
220
-0.4071957137923946
230
0.5780931159158106
  0
LINE
  5
1017F
330
1F
100
AcDbEntity
  8
Visible
100
AcDbLine
 10
386.845002111183
 20
419.0733868612581
 30
-65.64046249468993
 11
376.238401111183
 21
425.1813228612581
 31
-74.31185949468993
210
0.7071067811864428
220
-0.4071957137923946
230
0.5780931159158106
  0
LINE
  5
10180
330
1F
100
AcDbEntity
  8
Visible
100
AcDbLine
 10
376.238401111183
 20
425.1813228612581
 30
-74.31185949468993
 11
377.2990611111832
 21
425.7921168612582
 31
-75.17899949468992
210
0.7071067811864428
220
-0.4071957137923946
230
0.5780931159158106
  0
LINE
  5
10181
330
1F
100
AcDbEntity
  8
Visible
100
AcDbLine
 10
377.2990611111832
 20
425.7921168612582
 30
-75.17899949468992
 11
387.905663111183
 21
419.6841808612582
 31
-66.50760249468992
210
0.7071067811864428
220
-0.4071957137923946
230
0.5780931159158106
  0
LINE
  5
10182
330
1F
100
AcDbEntity
  8
Visible
100
AcDbLine
 10
402.401351111183
 20
392.1984698612582
 30
-27.48631649468992
 11
407.3510991111829
 21
389.3480998612582
 31
-23.43966449468993
210
0.7071067811864428
220
-0.4071957137923946
230
0.5780931159158106
  0
LINE
  5
10183
330
1F
100
AcDbEntity
  8
Visible
100
AcDbLine
 10
407.3510991111829
 20
389.3480998612582
 30
-23.43966449468993
 11
367.753119111183
 21
366.5451398612582
 31
8.933549505310068
210
0.7071067811864428
220
-0.4071957137923946
230
0.5780931159158106
  0
LINE
  5
10184
330
1F
100
AcDbEntity
  8
Visible
100
AcDbLine
 10
367.753119111183
 20
366.5451398612582
 30
8.933549505310068
 11
362.803371111183
 21
369.3955098612582
 31
4.886897505310074
210
0.7071067811864428
220
-0.4071957137923946
230
0.5780931159158106
  0
LINE
  5
10185
330
1F
100
AcDbEntity
  8
Visible
100
AcDbLine
 10
362.803371111183
 20
369.3955098612582
 30
4.886897505310074
 11
402.401351111183
 21
392.1984698612582
 31
-27.48631649468992
210
0.7071067811864428
220
-0.4071957137923946
230
0.5780931159158106
  0
LINE
  5
10186
330
1F
100
AcDbEntity
  8
Visible
100
AcDbLine
 10
330.9835671111832
 20
426.4029098612581
 30
-76.04613849468993
 11
329.5693531111831
 21
427.2173008612582
 31
-77.20232449468992
210
0.7071067811864428
220
-0.4071957137923946
230
0.5780931159158106
  0
LINE
  5
10187
330
1F
100
AcDbEntity
  8
Visible
100
AcDbLine
 10
329.5693531111831
 20
427.2173008612582
 30
-77.20232449468992
 11
338.761741111183
 21
432.5108458612581
 31
-84.71753549468992
210
0.7071067811864428
220
-0.4071957137923946
230
0.5780931159158106
  0
LINE
  5
10188
330
1F
100
AcDbEntity
  8
Visible
100
AcDbLine
 10
338.761741111183
 20
432.5108458612581
 30
-84.71753549468992
 11
340.1759551111831
 21
431.6964538612581
 31
-83.56134949468993
210
0.7071067811864428
220
-0.4071957137923946
230
0.5780931159158106
  0
LINE
  5
10189
330
1F
100
AcDbEntity
  8
Visible
100
AcDbLine
 10
340.1759551111831
 20
431.6964538612581
 30
-83.56134949468993
 11
330.9835671111832
 21
426.4029098612581
 31
-76.04613849468993
210
0.7071067811864428
220
-0.4071957137923946
230
0.5780931159158106
  0
LINE
  5
1018A
330
1F
100
AcDbEntity
  8
Visible
100
AcDbLine
 10
354.3180911111831
 20
437.8043898612581
 30
-92.23274649468994
 11
355.3787511111832
 21
438.4151838612582
 31
-93.09988549468991
210
0.7071067811864428
220
-0.4071957137923946
230
0.5780931159158106
  0
LINE
  5
1018B
330
1F
100
AcDbEntity
  8
Visible
100
AcDbLine
 10
355.3787511111832
 20
438.4151838612582
 30
-93.09988549468991
 11
365.9853521111831
 21
432.3072478612582
 31
-84.42848949468993
210
0.7071067811864428
220
-0.4071957137923946
230
0.5780931159158106
  0
LINE
  5
1018C
330
1F
100
AcDbEntity
  8
Visible
100
AcDbLine
 10
365.9853521111831
 20
432.3072478612582
 30
-84.42848949468993
 11
364.9246921111831
 21
431.6964538612581
 31
-83.56134949468993
210
0.7071067811864428
220
-0.4071957137923946
230
0.5780931159158106
  0
LINE
  5
1018D
330
1F
100
AcDbEntity
  8
Visible
100
AcDbLine
 10
364.9246921111831
 20
431.6964538612581
 30
-83.56134949468993
 11
354.3180911111831
 21
437.8043898612581
 31
-92.23274649468994
210
0.7071067811864428
220
-0.4071957137923946
230
0.5780931159158106
  0
LINE
  5
1018E
330
1F
100
AcDbEntity
  8
Visible
100
AcDbLine
 10
330.9008641111832
 20
378.0607768612581
 30
-7.415126494689921
 11
302.9634491111831
 21
394.1488648612582
 31
-30.25528049468993
210
0.7071067811864428
220
-0.4071957137923946
230
0.5780931159158106
  0
ARC
  5
1018F
330
1F
100
AcDbEntity
  8
Visible
100
AcDbCircle
 10
305.0847691111829
 20
-253.8316735691168
 30
-304.8124140866594
 40
3.000000000000043
210
-0.0000000000000003
220
-0.8175471248425399
230
-0.5758617009853118
100
AcDbArc
 50
134.9999999999957
 51
264.0938590000059
  0
LINE
  5
10190
330
1F
100
AcDbEntity
  8
Visible
100
AcDbLine
 10
304.7760711111832
 20
397.0888668612582
 30
-34.42918149468993
 11
327.3673821111831
 21
398.4346738612582
 31
-36.33981549468992
210
0.7071067811864428
220
-0.4071957137923946
230
0.5780931159158106
  0
ARC
  5
10191
330
1F
100
AcDbEntity
  8
Visible
100
AcDbCircle
 10
328.396374111183
 20
-249.2058635691168
 30
-304.8124140866594
 40
9.9999999999999
210
-0.0000000000000003
220
-0.8175471248425399
230
-0.5758617009853118
100
AcDbArc
 50
264.0938590000059
 51
5.906141000000346
  0
LINE
  5
10192
330
1F
100
AcDbEntity
  8
Visible
100
AcDbLine
 10
338.343292111183
 20
392.1140678612582
 30
-27.36649249468993
 11
336.0062601111831
 21
379.1045978612582
 31
-8.897031494689926
210
0.7071067811864428
220
-0.4071957137923946
230
0.5780931159158106
  0
ARC
  5
10193
330
1F
100
AcDbEntity
  8
Visible
100
AcDbCircle
 10
333.022184111183
 20
-225.8942575691168
 30
-304.8124140866594
 40
3.000000000000013
210
-0.0000000000000003
220
-0.8175471248425399
230
-0.5758617009853118
100
AcDbArc
 50
5.906141000000346
 51
134.9999999999957
  0
LINE
  5
10194
330
1F
100
AcDbEntity
  8
Visible
100
AcDbLine
 10
305.532737111183
 20
406.0080538612581
 30
-47.09169349468992
 11
338.938177111183
 21
425.2449668612581
 31
-74.40221549468993
210
0.7071067811864428
220
-0.4071957137923946
230
0.5780931159158106
  0
ARC
  5
10195
330
1F
100
AcDbEntity
  8
Visible
100
AcDbCircle
 10
341.0594981111827
 20
-303.5882865691168
 30
-304.8124140866594
 40
3.000000000000006
210
-0.0000000000000003
220
-0.8175471248425399
230
-0.5758617009853118
100
AcDbArc
 50
225.0000000000042
 51
5.906141000000346
  0
LINE
  5
10196
330
1F
100
AcDbEntity
  8
Visible
100
AcDbLine
 10
344.0435731111831
 20
423.8456128612582
 30
-72.41556149468992
 11
341.4970521111832
 21
409.6699878612581
 31
-52.29051749468992
210
0.7071067811864428
220
-0.4071957137923946
230
0.5780931159158106
  0
ARC
  5
10197
330
1F
100
AcDbEntity
  8
Visible
100
AcDbCircle
 10
331.5501341111829
 20
-279.6922105691168
 30
-304.8124140866594
 40
9.999999999999907
210
-0.0000000000000003
220
-0.8175471248425399
230
-0.5758617009853118
100
AcDbArc
 50
5.906141000000346
 51
84.09385900000595
  0
LINE
  5
10198
330
1F
100
AcDbEntity
  8
Visible
100
AcDbLine
 10
332.5791251111832
 20
404.5344958612582
 30
-44.99969249468992
 11
307.962755111183
 21
403.0680518612582
 31
-42.91779149468992
210
0.7071067811864428
220
-0.4071957137923946
230
0.5780931159158106
  0
ARC
  5
10199
330
1F
100
AcDbEntity
  8
Visible
100
AcDbCircle
 10
307.654057111183
 20
-270.1828465691168
 30
-304.8124140866594
 40
3.000000000000041
210
-0.0000000000000003
220
-0.8175471248425399
230
-0.5758617009853118
100
AcDbArc
 50
84.09385900000595
 51
225.0000000000042
  0
LINE
  5
1019A
330
1F
100
AcDbEntity
  8
Visible
100
AcDbLine
 10
357.8537291111832
 20
400.2508038612581
 30
-38.91816349468993
 11
382.470100111183
 21
401.7172478612581
 31
-41.00006449468992
210
0.7071067811864428
220
-0.4071957137923946
230
0.5780931159158106
  0
ARC
  5
1019B
330
1F
100
AcDbEntity
  8
Visible
100
AcDbCircle
 10
382.7787981111829
 20
-261.8689865691168
 30
-304.8124140866593
 40
2.999999999999944
210
-0.0000000000000003
220
-0.8175471248425399
230
-0.5758617009853118
100
AcDbArc
 50
264.0938590000059
 51
45.0000000000042
  0
LINE
  5
1019C
330
1F
100
AcDbEntity
  8
Visible
100
AcDbLine
 10
384.900118111183
 20
398.7772458612582
 30
-36.82616249468992
 11
351.494678111183
 21
379.5403318612581
 31
-9.515640494689925
210
0.7071067811864428
220
-0.4071957137923946
230
0.5780931159158106
  0
ARC
  5
1019D
330
1F
100
AcDbEntity
  8
Visible
100
AcDbCircle
 10
349.3733571111828
 20
-228.4635465691168
 30
-304.8124140866594
 40
3.000000000000006
210
-0.0000000000000003
220
-0.8175471248425399
230
-0.5758617009853118
100
AcDbArc
 50
45.0000000000042
 51
185.9061410000003
  0
LINE
  5
1019E
330
1F
100
AcDbEntity
  8
Visible
100
AcDbLine
 10
346.3892821111831
 20
380.9396858612582
 30
-11.50229449468993
 11
348.9358031111831
 21
395.1153118612581
 31
-31.62733849468993
210
0.7071067811864428
220
-0.4071957137923946
230
0.5780931159158106
  0
ARC
  5
1019F
330
1F
100
AcDbEntity
  8
Visible
100
AcDbCircle
 10
358.882721111183
 20
-252.3596235691168
 30
-304.8124140866594
 40
9.999999999999991
210
-0.0000000000000003
220
-0.8175471248425399
230
-0.5758617009853118
100
AcDbArc
 50
185.9061410000003
 51
264.0938590000059
  0
LINE
  5
101A0
330
1F
100
AcDbEntity
  8
Visible
100
AcDbLine
 10
352.089563111183
 20
412.6712308612581
 30
-56.55136349468993
 11
354.4265951111831
 21
425.6807018612581
 31
-75.02082449468992
210
0.7071067811864428
220
-0.4071957137923946
230
0.5780931159158106
  0
ARC
  5
101A1
330
1F
100
AcDbEntity
  8
Visible
100
AcDbCircle
 10
357.4106711111827
 20
-306.1575755691169
 30
-304.8124140866594
 40
3.000000000000028
210
-0.0000000000000003
220
-0.8175471248425399
230
-0.5758617009853118
100
AcDbArc
 50
185.9061410000003
 51
314.9999999999958
  0
LINE
  5
101A2
330
1F
100
AcDbEntity
  8
Visible
100
AcDbLine
 10
359.5319911111831
 20
426.7245218612582
 30
-76.50272949468993
 11
387.4694061111832
 21
410.6364348612581
 31
-53.66257549468993
210
0.7071067811864428
220
-0.4071957137923946
230
0.5780931159158106
  0
ARC
  5
101A3
330
1F
100
AcDbEntity
  8
Visible
100
AcDbCircle
 10
385.3480861111828
 20
-278.2201595691168
 30
-304.8124140866593
 40
2.999999999999971
210
-0.0000000000000003
220
-0.8175471248425399
230
-0.5758617009853118
100
AcDbArc
 50
314.9999999999958
 51
84.09385900000595
  0
LINE
  5
101A4
330
1F
100
AcDbEntity
  8
Visible
100
AcDbLine
 10
385.656784111183
 20
407.6964328612581
 30
-49.48867449468992
 11
363.0654731111831
 21
406.3506248612581
 31
-47.57804049468993
210
0.7071067811864428
220
-0.4071957137923946
230
0.5780931159158106
  0
ARC
  5
101A5
330
1F
100
AcDbEntity
  8
Visible
100
AcDbCircle
 10
362.0364811111829
 20
-282.8459705691169
 30
-304.8124140866594
 40
9.999999999999936
210
-0.0000000000000003
220
-0.8175471248425399
230
-0.5758617009853118
100
AcDbArc
 50
84.09385900000595
 51
185.9061410000003
  0
CIRCLE
  5
101A6
330
1F
100
AcDbEntity
  8
Visible
100
AcDbCircle
 10
413.602228111183
 20
-243.9398215691168
 30
-304.8124140866594
 40
0.7499999999999929
210
-0.0000000000000003
220
-0.8175471248425399
230
-0.5758617009853118
  0
CIRCLE
  5
101A7
330
1F
100
AcDbEntity
  8
Visible
100
AcDbCircle
 10
367.1869871111829
 20
-197.5245805691168
 30
-304.8124140866594
 40
0.7499999999999929
210
-0.0000000000000003
220
-0.8175471248425399
230
-0.5758617009853118
  0
CIRCLE
  5
101A8
330
1F
100
AcDbEntity
  8
Visible
100
AcDbCircle
 10
348.5348151111828
 20
-342.9493245691168
 30
-304.8124140866594
 40
0.7499999999999929
210
-0.0000000000000003
220
-0.8175471248425399
230
-0.5758617009853118
  0
CIRCLE
  5
101A9
330
1F
100
AcDbEntity
  8
Visible
100
AcDbCircle
 10
268.1774841111829
 20
-262.5919935691169
 30
-304.8124140866593
 40
0.7499999999999929
210
-0.0000000000000003
220
-0.8175471248425399
230
-0.5758617009853118
  0
LINE
  5
101AA
330
1F
100
AcDbEntity
  8
Visible
100
AcDbLine
 10
331.883601111183
 20
433.6213328612581
 30
-86.29408749468993
 11
329.762281111183
 21
432.3997458612582
 31
-84.55980849468991
210
0.7071067811864428
220
-0.4071957137923946
230
0.5780931159158106
  0
LINE
  5
101AB
330
1F
100
AcDbEntity
  8
Visible
100
AcDbLine
 10
329.762281111183
 20
432.3997458612582
 30
-84.55980849468991
 11
324.1054261111831
 21
435.6573118612582
 31
-89.18455249468992
210
0.7071067811864428
220
-0.4071957137923946
230
0.5780931159158106
  0
LINE
  5
101AC
330
1F
100
AcDbEntity
  8
Visible
100
AcDbLine
 10
324.1054261111831
 20
435.6573118612582
 30
-89.18455249468992
 11
326.2267471111832
 21
436.8788988612581
 31
-90.91883249468992
210
0.7071067811864428
220
-0.4071957137923946
230
0.5780931159158106
  0
LINE
  5
101AD
330
1F
100
AcDbEntity
  8
Visible
100
AcDbLine
 10
374.354603111183
 20
359.7501258612582
 30
13.37080250531007
 11
414.8917501111831
 21
383.0939158612581
 31
-19.77022549468992
210
0.7071067811864428
220
-0.4071957137923946
230
0.5780931159158106
  0
ARC
  5
101AE
330
1F
100
AcDbEntity
  8
Visible
100
AcDbCircle
 10
-367.283536111183
 20
-203.3061265691168
 30
301.8124140866593
 40
10.0
210
0.0000000000000003
220
0.8175471248425399
230
0.5758617009853118
100
AcDbArc
 50
68.70264600000493
 51
134.9999999999958
  0
LINE
  5
101AF
330
1F
100
AcDbEntity
  8
Visible
100
AcDbLine
 10
313.408574111183
 20
369.7356808612582
 30
-0.8056244946899298
 11
363.651454111183
 21
358.4567338612582
 31
15.20702250531008
210
0.7071067811864428
220
-0.4071957137923946
230
0.5780931159158106
  0
ARC
  5
101B0
330
1F
100
AcDbEntity
  8
Visible
100
AcDbCircle
 10
-318.8566971111831
 20
-227.5508735691168
 30
301.8124140866594
 40
15.00000000001034
210
0.0000000000000003
220
0.8175471248425399
230
0.5758617009853118
100
AcDbArc
 50
58.92884399999638
 51
68.70264600000493
  0
ARC
  5
101B1
330
1F
100
AcDbEntity
  8
Visible
100
AcDbCircle
 10
-388.7806481111828
 20
-343.5971785691168
 30
301.8124140866594
 40
150.484698838195
210
0.0000000000000003
220
0.8175471248425399
230
0.5758617009853118
100
AcDbArc
 50
35.44057699999724
 51
58.92884399999638
  0
ARC
  5
101B2
330
1F
100
AcDbEntity
  8
Visible
100
AcDbCircle
 10
-278.3989141111829
 20
-265.0352495691168
 30
301.8124140866593
 40
14.99999999999954
210
0.0000000000000003
220
0.8175471248425399
230
0.5758617009853118
100
AcDbArc
 50
0.0000000000000121
 51
35.44057699999724
  0
ARC
  5
101B3
330
1F
100
AcDbEntity
  8
Visible
100
AcDbCircle
 10
-407.8206821111828
 20
-243.8432735691168
 30
301.8124140866593
 40
9.999999999999984
210
0.0000000000000003
220
0.8175471248425399
230
0.5758617009853118
100
AcDbArc
 50
134.9999999999958
 51
180.0
  0
ARC
  5
101B4
330
1F
100
AcDbEntity
  8
Visible
100
AcDbCircle
 10
-328.396374111183
 20
-249.2058635691168
 30
301.8124140866594
 40
9.999999999999868
210
0.0000000000000003
220
0.8175471248425399
230
0.5758617009853118
100
AcDbArc
 50
191.1193819999986
 51
275.9061409999941
  0
LINE
  5
101B5
330
1F
100
AcDbEntity
  8
Visible
100
AcDbLine
 10
327.3673821111831
 20
395.9820328612582
 30
-38.06740049468993
 11
304.7760711111832
 21
394.6362258612582
 31
-36.15676649468993
210
0.7071067811864428
220
-0.4071957137923946
230
0.5780931159158106
  0
ARC
  5
101B6
330
1F
100
AcDbEntity
  8
Visible
100
AcDbCircle
 10
-305.0847691111829
 20
-253.8316735691168
 30
301.8124140866593
 40
3.000000000000131
210
0.0000000000000003
220
0.8175471248425399
230
0.5758617009853118
100
AcDbArc
 50
275.9061409999941
 51
314.7779829999981
  0
LINE
  5
101B7
330
1F
100
AcDbEntity
  8
Visible
100
AcDbLine
 10
338.938177111183
 20
422.7923258612581
 30
-76.12980049468993
 11
305.5409731111831
 21
403.560154861258
 31
-48.82601149468992
210
0.7071067811864428
220
-0.4071957137923946
230
0.5780931159158106
  0
ARC
  5
101B8
330
1F
100
AcDbEntity
  8
Visible
100
AcDbCircle
 10
-341.0594981111827
 20
-303.5882865691168
 30
301.8124140866594
 40
2.999999999999984
210
0.0000000000000003
220
0.8175471248425399
230
0.5758617009853118
100
AcDbArc
 50
205.4538129999992
 51
314.9999999999958
  0
LINE
  5
101B9
330
1F
100
AcDbEntity
  8
Visible
100
AcDbLine
 10
382.470100111183
 20
399.2646068612582
 30
-42.72764949468992
 11
357.8537291111832
 21
397.7981628612582
 31
-40.64574849468992
210
0.7071067811864428
220
-0.4071957137923946
230
0.5780931159158106
  0
ARC
  5
101BA
330
1F
100
AcDbEntity
  8
Visible
100
AcDbCircle
 10
-358.882721111183
 20
-252.3596235691169
 30
301.8124140866593
 40
9.999999999999991
210
0.0000000000000003
220
0.8175471248425399
230
0.5758617009853118
100
AcDbArc
 50
275.9061409999941
 51
354.0938589999996
  0
LINE
  5
101BB
330
1F
100
AcDbEntity
  8
Visible
100
AcDbLine
 10
348.9358031111831
 20
392.6626698612582
 30
-33.35492349468993
 11
346.6645611111831
 21
380.0194318612582
 31
-15.40539949468992
210
0.7071067811864428
220
-0.4071957137923946
230
0.5780931159158106
  0
ARC
  5
101BC
330
1F
100
AcDbEntity
  8
Visible
100
AcDbCircle
 10
-382.7787981111829
 20
-261.8689865691168
 30
301.8124140866594
 40
3.000000000000044
210
0.0000000000000003
220
0.8175471248425399
230
0.5758617009853118
100
AcDbArc
 50
225.2220170000019
 51
275.9061409999941
  0
LINE
  5
101BD
330
1F
100
AcDbEntity
  8
Visible
100
AcDbLine
 10
354.4265951111831
 20
423.2280608612581
 30
-76.74840949468992
 11
352.2242061111831
 21
410.9681028612581
 31
-59.34302749468992
210
0.7071067811864428
220
-0.4071957137923946
230
0.5780931159158106
  0
LINE
  5
101BE
330
1F
100
AcDbEntity
  8
Visible
100
AcDbLine
 10
387.4611711111831
 20
408.1885358612582
 30
-55.39689449468992
 11
359.5319911111831
 21
424.2718808612582
 31
-78.23031449468992
210
0.7071067811864428
220
-0.4071957137923946
230
0.5780931159158106
  0
ARC
  5
101BF
330
1F
100
AcDbEntity
  8
Visible
100
AcDbCircle
 10
-357.4106711111827
 20
-306.1575755691169
 30
301.8124140866594
 40
3.000000000000006
210
0.0000000000000003
220
0.8175471248425399
230
0.5758617009853118
100
AcDbArc
 50
225.0000000000042
 51
354.0938589999996
  0
LINE
  5
101C0
330
1F
100
AcDbEntity
  8
Visible Narrow
100
AcDbLine
 10
387.4694061111832
 20
408.1932598612581
 30
-55.38349249468993
 11
387.4694061111832
 21
410.6364348612581
 31
-53.66257549468993
210
0.7071067811864428
220
-0.4071957137923946
230
0.5780931159158106
  0
LINE
  5
101C1
330
1F
100
AcDbEntity
  8
Visible Narrow
100
AcDbLine
 10
352.089563111183
 20
411.4861178612581
 30
-57.38613049468992
 11
352.089563111183
 21
412.6712308612581
 31
-56.55136349468993
210
0.7071067811864428
220
-0.4071957137923946
230
0.5780931159158106
  0
LINE
  5
101C2
330
1F
100
AcDbEntity
  8
Visible Narrow
100
AcDbLine
 10
354.4265951111831
 20
423.2280608612581
 30
-76.74840949468992
 11
354.4265951111831
 21
425.6807018612581
 31
-75.02082449468992
210
0.7071067811864428
220
-0.4071957137923946
230
0.5780931159158106
  0
LINE
  5
101C3
330
1F
100
AcDbEntity
  8
Visible Narrow
100
AcDbLine
 10
359.5319911111831
 20
424.2718808612582
 30
-78.23031449468992
 11
359.5319911111831
 21
426.7245218612582
 31
-76.50272949468993
210
0.7071067811864428
220
-0.4071957137923946
230
0.5780931159158106
  0
LINE
  5
101C4
330
1F
100
AcDbEntity
  8
Visible Narrow
100
AcDbLine
 10
346.3892821111831
 20
380.5841518612581
 30
-11.75272549468992
 11
346.3892821111831
 21
380.9396858612582
 31
-11.50229449468993
210
0.7071067811864428
220
-0.4071957137923946
230
0.5780931159158106
  0
LINE
  5
101C5
330
1F
100
AcDbEntity
  8
Visible Narrow
100
AcDbLine
 10
348.9358031111831
 20
392.6626698612582
 30
-33.35492349468993
 11
348.9358031111831
 21
395.1153118612581
 31
-31.62733849468993
210
0.7071067811864428
220
-0.4071957137923946
230
0.5780931159158106
  0
LINE
  5
101C6
330
1F
100
AcDbEntity
  8
Visible Narrow
100
AcDbLine
 10
357.8537291111832
 20
397.7981628612582
 30
-40.64574849468992
 11
357.8537291111832
 21
400.2508038612581
 31
-38.91816349468993
210
0.7071067811864428
220
-0.4071957137923946
230
0.5780931159158106
  0
LINE
  5
101C7
330
1F
100
AcDbEntity
  8
Visible Narrow
100
AcDbLine
 10
382.470100111183
 20
399.2646068612582
 30
-42.72764949468992
 11
382.470100111183
 21
401.7172478612581
 31
-41.00006449468992
210
0.7071067811864428
220
-0.4071957137923946
230
0.5780931159158106
  0
LINE
  5
101C8
330
1F
100
AcDbEntity
  8
Visible Narrow
100
AcDbLine
 10
305.532737111183
 20
403.5648788612581
 30
-48.81261049468992
 11
305.532737111183
 21
406.0080538612581
 31
-47.09169349468992
210
0.7071067811864428
220
-0.4071957137923946
230
0.5780931159158106
  0
LINE
  5
101C9
330
1F
100
AcDbEntity
  8
Visible Narrow
100
AcDbLine
 10
338.938177111183
 20
422.7923258612581
 30
-76.12980049468993
 11
338.938177111183
 21
425.2449668612581
 31
-74.40221549468993
210
0.7071067811864428
220
-0.4071957137923946
230
0.5780931159158106
  0
LINE
  5
101CA
330
1F
100
AcDbEntity
  8
Visible Narrow
100
AcDbLine
 10
327.3673821111831
 20
395.9820328612582
 30
-38.06740049468993
 11
327.3673821111831
 21
398.4346738612582
 31
-36.33981549468992
210
0.7071067811864428
220
-0.4071957137923946
230
0.5780931159158106
  0
LINE
  5
101CB
330
1F
100
AcDbEntity
  8
Visible Narrow
100
AcDbLine
 10
304.7760711111832
 20
394.6362258612582
 30
-36.15676649468993
 11
304.7760711111832
 21
397.0888668612582
 31
-34.42918149468993
210
0.7071067811864428
220
-0.4071957137923946
230
0.5780931159158106
  0
LINE
  5
101CC
330
1F
100
AcDbEntity
  8
Visible
100
AcDbLine
 10
402.401351111183
 20
391.3809228612582
 30
-28.06217849468993
 11
406.6412521111831
 21
388.9393258612582
 31
-24.59585949468993
210
0.7071067811864428
220
-0.4071957137923946
230
0.5780931159158106
  0
LINE
  5
101CD
330
1F
100
AcDbEntity
  8
Visible
100
AcDbLine
 10
363.513218111183
 20
368.9867358612582
 30
3.730702505310077
 11
402.401351111183
 21
391.3809228612582
 31
-28.06217849468993
210
0.7071067811864428
220
-0.4071957137923946
230
0.5780931159158106
  0
LINE
  5
101CE
330
1F
100
AcDbEntity
  8
Visible
100
AcDbLine
 10
402.401351111183
 20
391.3809228612582
 30
-28.06217849468993
 11
402.401351111183
 21
392.1984698612582
 31
-27.48631649468992
210
0.7071067811864428
220
-0.4071957137923946
230
0.5780931159158106
  0
LINE
  5
101CF
330
1F
100
AcDbEntity
  8
Visible
100
AcDbLine
 10
305.527722111183
 20
383.2401638612582
 30
-17.36300549468992
 11
305.527722111183
 21
384.4617508612582
 31
-16.50254749468992
210
0.7071067811864428
220
-0.4071957137923946
230
0.5780931159158106
  0
LINE
  5
101D0
330
1F
100
AcDbEntity
  8
Visible
100
AcDbLine
 10
283.6074121111831
 20
395.8632308612582
 30
-35.28389249468992
 11
283.6074121111831
 21
397.0848178612582
 31
-34.42343349468993
210
0.7071067811864428
220
-0.4071957137923946
230
0.5780931159158106
  0
LINE
  5
101D1
330
1F
100
AcDbEntity
  8
Visible
100
AcDbLine
 10
313.6594501111831
 20
425.3849208612582
 30
-77.19564349468993
 11
313.6594501111831
 21
426.6065078612582
 31
-76.33518549468992
210
0.7071067811864428
220
-0.4071957137923946
230
0.5780931159158106
  0
LINE
  5
101D2
330
1F
100
AcDbEntity
  8
Visible
100
AcDbLine
 10
287.335873111183
 20
412.0399598612581
 30
-60.84462749468992
 11
287.335873111183
 21
414.4831338612581
 31
-59.12371049468993
210
0.7071067811864428
220
-0.4071957137923946
230
0.5780931159158106
  0
LINE
  5
101D3
330
1F
100
AcDbEntity
  8
Visible
100
AcDbLine
 10
301.9921881111832
 20
409.7078848612581
 30
-55.80397049468992
 11
301.9921881111832
 21
411.3366678612581
 31
-54.65669349468992
210
0.7071067811864428
220
-0.4071957137923946
230
0.5780931159158106
  0
LINE
  5
101D4
330
1F
100
AcDbEntity
  8
Visible
100
AcDbLine
 10
377.2990611111832
 20
424.5705288612581
 30
-76.03945749468991
 11
377.2990611111832
 21
425.7921168612582
 31
-75.17899949468992
210
0.7071067811864428
220
-0.4071957137923946
230
0.5780931159158106
  0
LINE
  5
101D5
330
1F
100
AcDbEntity
  8
Visible
100
AcDbLine
 10
338.761741111183
 20
430.8820628612581
 30
-85.86481349468991
 11
338.761741111183
 21
432.5108458612581
 31
-84.71753549468992
210
0.7071067811864428
220
-0.4071957137923946
230
0.5780931159158106
  0
LINE
  5
101D6
330
1F
100
AcDbEntity
  8
Visible
100
AcDbLine
 10
355.3787511111832
 20
437.1935968612581
 30
-93.96034449468993
 11
355.3787511111832
 21
438.4151838612582
 31
-93.09988549468991
210
0.7071067811864428
220
-0.4071957137923946
230
0.5780931159158106
  0
LINE
  5
101D7
330
1F
100
AcDbEntity
  8
Visible Narrow
100
AcDbLine
 10
374.354603111183
 20
359.7501258612582
 30
13.37080250531007
 11
374.354603111183
 21
362.2027678612582
 31
15.09838750531008
210
0.7071067811864428
220
-0.4071957137923946
230
0.5780931159158106
  0
LINE
  5
101D8
330
1F
100
AcDbEntity
  8
Visible Narrow
100
AcDbLine
 10
363.651454111183
 20
358.4567338612582
 30
15.20702250531008
 11
363.651454111183
 21
360.9093748612581
 31
16.93460850531007
210
0.7071067811864428
220
-0.4071957137923946
230
0.5780931159158106
  0
LINE
  5
101D9
330
1F
100
AcDbEntity
  8
Visible Narrow
100
AcDbLine
 10
313.408574111183
 20
369.7356808612582
 30
-0.8056244946899298
 11
313.408574111183
 21
372.1883218612582
 31
0.921960505310075
210
0.7071067811864428
220
-0.4071957137923946
230
0.5780931159158106
  0
LINE
  5
101DA
330
1F
100
AcDbEntity
  8
Visible Narrow
100
AcDbLine
 10
311.1151641111831
 20
370.3850878612582
 30
-1.727584494689921
 11
311.1151641111831
 21
372.8377298612582
 31
0.0000005053100764
210
0.7071067811864428
220
-0.4071957137923946
230
0.5780931159158106
  0
LINE
  5
101DB
330
1F
100
AcDbEntity
  8
Visible Narrow
100
AcDbLine
 10
266.1781541111832
 20
394.3607488612582
 30
-35.76567349468993
 11
266.1781541111832
 21
396.8133898612581
 31
-34.03808849468993
210
0.7071067811864428
220
-0.4071957137923946
230
0.5780931159158106
  0
LINE
  5
101DC
330
1F
100
AcDbEntity
  8
Visible Narrow
100
AcDbLine
 10
414.8917501111831
 20
383.0939158612581
 30
-19.77022549468992
 11
414.8917501111831
 21
385.5465578612582
 31
-18.04264049468992
210
0.7071067811864428
220
-0.4071957137923946
230
0.5780931159158106
  0
LINE
  5
101DD
330
1F
100
AcDbEntity
  8
Visible
100
AcDbLine
 10
263.3989141111831
 20
399.3695208612582
 30
-42.87659649468992
 11
263.3989141111831
 21
401.8221628612582
 31
-41.14901149468992
210
0.7071067811864428
220
-0.4071957137923946
230
0.5780931159158106
  0
LINE
  5
101DE
330
1F
100
AcDbEntity
  8
Visible
100
AcDbLine
 10
417.820682111183
 20
387.1658738612581
 30
-25.55115649468993
 11
417.820682111183
 21
389.6185148612582
 31
-23.82357149468993
210
0.7071067811864428
220
-0.4071957137923946
230
0.5780931159158106
  0
ENDSEC
  0
SECTION
  2
OBJECTS
  0
DICTIONARY
  5
C
330
0
100
AcDbDictionary
281
     1
  3
ACAD_CIP_PREVIOUS_PRODUCT_INFO
350
1005A
  3
ACAD_COLOR
350
10036
  3
ACAD_DETAILVIEWSTYLE
350
10051
  3
ACAD_GROUP
350
D
  3
ACAD_LAYOUT
350
10037
  3
ACAD_MATERIAL
350
10004
  3
ACAD_MLEADERSTYLE
350
1004D
  3
ACAD_MLINESTYLE
350
17
  3
ACAD_PLOTSETTINGS
350
10054
  3
ACAD_PLOTSTYLENAME
350
10002
  3
ACAD_SCALELIST
350
1003B
  3
ACAD_SECTIONVIEWSTYLE
350
1004F
  3
ACAD_TABLESTYLE
350
10038
  3
ACAD_VISUALSTYLE
350
1001D
  3
ACDB_RECOMPOSE_DATA
350
101F2
  3
AcDbVariableDictionary
350
100BA
  0
DICTIONARY
  5
100AA
330
2
100
AcDbDictionary
280
     1
281
     1
  3
ACAD_LAYERSTATES
360
100AB
  0
DICTIONARY
  5
10095
330
50
100
AcDbDictionary
280
     1
281
     1
  3
ADSK_XREC_LAYER_RECONCILED
360
10096
  0
XRECORD
  5
1005A
102
{ACAD_REACTORS
330
C
102
}
330
C
100
AcDbXrecord
280
     1
300
ACD
300
2018
300

  0
DICTIONARY
  5
10036
102
{ACAD_REACTORS
330
C
102
}
330
C
100
AcDbDictionary
281
     1
  0
DICTIONARY
  5
10051
102
{ACAD_REACTORS
330
C
102
}
330
C
100
AcDbDictionary
281
     1
  3
Imperial24
350
10052
  3
Metric50
350
100D2
  0
DICTIONARY
  5
D
330
C
100
AcDbDictionary
281
     1
  0
DICTIONARY
  5
10037
102
{ACAD_REACTORS
330
C
102
}
330
C
100
AcDbDictionary
281
     1
  3
Layout1
350
10056
  3
Model
350
10055
  0
DICTIONARY
  5
10004
102
{ACAD_REACTORS
330
C
102
}
330
C
100
AcDbDictionary
281
     1
  3
ByBlock
350
1000D
  3
ByLayer
350
10005
  3
Global
350
10015
  0
DICTIONARY
  5
1004D
102
{ACAD_REACTORS
330
C
102
}
330
C
100
AcDbDictionary
281
     1
  3
Standard
350
1004E
  0
DICTIONARY
  5
17
330
C
100
AcDbDictionary
281
     1
  3
Standard
350
1003A
  0
DICTIONARY
  5
10054
102
{ACAD_REACTORS
330
C
102
}
330
C
100
AcDbDictionary
281
     1
  0
ACDBDICTIONARYWDFLT
  5
10002
102
{ACAD_REACTORS
330
C
102
}
330
C
100
AcDbDictionary
281
     1
  3
Normal
350
10003
100
AcDbDictionaryWithDefault
340
10003
  0
DICTIONARY
  5
1003B
102
{ACAD_REACTORS
330
C
102
}
330
C
100
AcDbDictionary
281
     1
  3
A0
350
1003C
  3
A1
350
1003D
  3
A2
350
1003E
  3
A3
350
1003F
  3
A4
350
10040
  3
A5
350
10041
  3
A6
350
10042
  3
A7
350
10043
  3
A8
350
10044
  3
A9
350
10045
  3
B0
350
10046
  3
B1
350
10047
  3
B2
350
10048
  3
B3
350
10049
  3
B4
350
1004A
  3
B5
350
1004B
  3
B6
350
1004C
  0
DICTIONARY
  5
1004F
102
{ACAD_REACTORS
330
C
102
}
330
C
100
AcDbDictionary
281
     1
  3
Imperial24
350
10050
  3
Metric50
350
100D1
  0
DICTIONARY
  5
10038
102
{ACAD_REACTORS
330
C
102
}
330
C
100
AcDbDictionary
281
     1
  3
Standard
350
10039
  0
DICTIONARY
  5
1001D
102
{ACAD_REACTORS
330
C
102
}
330
C
100
AcDbDictionary
281
     1
  3
2dWireframe
350
10023
  3
Basic
350
10022
  3
Brighten
350
10029
  3
ColorChange
350
1002D
  3
Conceptual
350
10026
  3
Dim
350
10028
  3
EdgeColorOff
350
10035
  3
Facepattern
350
1002C
  3
Flat
350
1001E
  3
FlatWithEdges
350
1001F
  3
Gouraud
350
10020
  3
GouraudWithEdges
350
10021
  3
Hidden
350
10025
  3
JitterOff
350
10033
  3
Linepattern
350
1002B
  3
OverhangOff
350
10034
  3
Realistic
350
10027
  3
Shaded
350
10032
  3
Shaded with edges
350
10031
  3
Shades of Gray
350
1002E
  3
Sketchy
350
1002F
  3
Thicken
350
1002A
  3
Wireframe
350
10024
  3
X-Ray
350
10030
  0
XRECORD
  5
101F2
102
{ACAD_REACTORS
330
C
102
}
330
C
100
AcDbXrecord
280
     1
 90
        1
330
10039
  0
DICTIONARY
  5
100BA
102
{ACAD_REACTORS
330
C
102
}
330
C
100
AcDbDictionary
281
     1
  3
CANNOSCALE
350
100C0
  3
CMLEADERSTYLE
350
100BC
  3
CTABLESTYLE
350
100BB
  3
CVIEWDETAILSTYLE
350
100BD
  3
CVIEWSECTIONSTYLE
350
100BE
  3
LAYEREVAL
350
100C2
  3
LAYERNOTIFY
350
100C3
  3
LIGHTINGUNITS
350
100C1
  3
MSLTSCALE
350
100BF
  0
DICTIONARY
  5
100AB
102
{ACAD_REACTORS
330
100AA
102
}
330
100AA
100
AcDbDictionary
281
     1
  0
XRECORD
  5
10096
102
{ACAD_REACTORS
330
10095
102
}
330
10095
100
AcDbXrecord
280
     1
290
     1
  0
ACDBDETAILVIEWSTYLE
  5
10052
102
{ACAD_REACTORS
330
10051
102
}
330
10051
100
AcDbModelDocViewStyle
 70
     0
  3
Imperial24
290
     0
300
Imperial24
 90
        0
100
AcDbDetailViewStyle
 70
     0
 71
     0
 90
        3
 71
     1
340
11
 62
   256
 40
0.24
340
0
 62
   256
 40
0.24
300

 40
0.36
280
     3
 71
     2
340
0
 90
       25
 62
   256
 71
     3
340
11
 62
   256
 40
0.24
 90
        1
 40
0.75
 90
        1
300
%<\AcVar ViewType \f "%tc1">% %<\AcVar ViewDetailId>%\PSCALE %<\AcVar ViewScale \f "%sn">%
 71
     4
340
0
 90
       25
 62
   256
340
0
 90
       25
 62
   256
280
     0
  0
ACDBDETAILVIEWSTYLE
  5
100D2
102
{ACAD_REACTORS
330
10051
102
}
330
10051
100
AcDbModelDocViewStyle
 70
     0
  3
Metric50
290
     0
300
Metric50
 90
        0
100
AcDbDetailViewStyle
 70
     0
 71
     0
 90
        3
 71
     1
340
11
 62
   256
 40
5.0
340
0
 62
   256
 40
5.0
300

 40
0.0
280
     1
 71
     2
340
10001
 90
       25
 62
   256
 71
     3
340
11
 62
   256
 40
5.0
 90
        0
 40
15.0
 90
        1
300
%<\AcVar ViewDetailId>% (%<\AcVar ViewScale \f "%sn">%)
 71
     4
340
10001
 90
       25
 62
   256
340
10001
 90
       25
 62
   256
280
     0
  0
LAYOUT
  5
10056
102
{ACAD_REACTORS
330
10037
102
}
330
10037
100
AcDbPlotSettings
  1

  2
Microsoft Print to PDF
  4

  6

 40
0.0
 41
0.0
 42
0.0
 43
0.0
 44
0.0
 45
0.0
 46
0.0
 47
0.0
 48
0.0
 49
0.0
140
0.0
141
0.0
142
1.0
143
1.0
 70
   688
 72
     0
 73
     0
 74
     5
  7

 75
    16
147
1.0
 76
     0
 77
     2
 78
   300
148
0.0
149
0.0
100
AcDbLayout
  1
Layout1
 70
     1
 71
     1
 10
0.0
 20
0.0
 11
12.0
 21
9.0
 12
0.0
 22
0.0
 32
0.0
 14
1.000000000000000E+20
 24
1.000000000000000E+20
 34
1.000000000000000E+20
 15
-1.000000000000000E+20
 25
-1.000000000000000E+20
 35
-1.000000000000000E+20
146
0.0
 13
0.0
 23
0.0
 33
0.0
 16
1.0
 26
0.0
 36
0.0
 17
0.0
 27
1.0
 37
0.0
 76
     0
330
1B
  0
LAYOUT
  5
10055
102
{ACAD_REACTORS
330
10037
102
}
330
10037
100
AcDbPlotSettings
  1

  2
Microsoft Print to PDF
  4

  6

 40
0.0
 41
0.0
 42
0.0
 43
0.0
 44
0.0
 45
0.0
 46
0.0
 47
0.0
 48
0.0
 49
0.0
140
0.0
141
0.0
142
1.0
143
1.0
 70
  1712
 72
     0
 73
     0
 74
     0
  7

 75
     0
147
1.0
 76
     0
 77
     2
 78
   300
148
0.0
149
0.0
100
AcDbLayout
  1
Model
 70
     1
 71
     0
 10
0.0
 20
0.0
 11
12.0
 21
9.0
 12
0.0
 22
0.0
 32
0.0
 14
0.0
 24
0.0
 34
0.0
 15
0.0
 25
0.0
 35
0.0
146
0.0
 13
0.0
 23
0.0
 33
0.0
 16
1.0
 26
0.0
 36
0.0
 17
0.0
 27
1.0
 37
0.0
 76
     0
330
1F
331
10059
  0
MATERIAL
  5
1000D
102
{ACAD_XDICTIONARY
360
1000E
102
}
102
{ACAD_REACTORS
330
10004
102
}
330
10004
100
AcDbMaterial
  1
ByBlock
 72
     0
 43
0.0008202099737533
 43
0.0
 43
0.0
 43
0.0
 43
0.0
 43
0.0008202099737533
 43
0.0
 43
0.0
 43
0.0
 43
0.0
 43
1.0
 43
0.0
 43
0.0
 43
0.0
 43
0.0
 43
1.0
 77
     0
 47
0.0008202099737533
 47
0.0
 47
0.0
 47
0.0
 47
0.0
 47
0.0008202099737533
 47
0.0
 47
0.0
 47
0.0
 47
0.0
 47
1.0
 47
0.0
 47
0.0
 47
0.0
 47
0.0
 47
1.0
171
     0
 49
0.0008202099737533
 49
0.0
 49
0.0
 49
0.0
 49
0.0
 49
0.0008202099737533
 49
0.0
 49
0.0
 49
0.0
 49
0.0
 49
1.0
 49
0.0
 49
0.0
 49
0.0
 49
0.0
 49
1.0
175
     0
142
0.0008202099737533
142
0.0
142
0.0
142
0.0
142
0.0
142
0.0008202099737533
142
0.0
142
0.0
142
0.0
142
0.0
142
1.0
142
0.0
142
0.0
142
0.0
142
0.0
142
1.0
179
     0
144
0.0008202099737533
144
0.0
144
0.0
144
0.0
144
0.0
144
0.0008202099737533
144
0.0
144
0.0
144
0.0
144
0.0
144
1.0
144
0.0
144
0.0
144
0.0
144
0.0
144
1.0
147
0.0008202099737533
147
0.0
147
0.0
147
0.0
147
0.0
147
0.0008202099737533
147
0.0
147
0.0
147
0.0
147
0.0
147
1.0
147
0.0
147
0.0
147
0.0
147
0.0
147
1.0
  0
MATERIAL
  5
10005
102
{ACAD_XDICTIONARY
360
10006
102
}
102
{ACAD_REACTORS
330
10004
102
}
330
10004
100
AcDbMaterial
  1
ByLayer
 72
     0
 43
0.0008202099737533
 43
0.0
 43
0.0
 43
0.0
 43
0.0
 43
0.0008202099737533
 43
0.0
 43
0.0
 43
0.0
 43
0.0
 43
1.0
 43
0.0
 43
0.0
 43
0.0
 43
0.0
 43
1.0
 77
     0
 47
0.0008202099737533
 47
0.0
 47
0.0
 47
0.0
 47
0.0
 47
0.0008202099737533
 47
0.0
 47
0.0
 47
0.0
 47
0.0
 47
1.0
 47
0.0
 47
0.0
 47
0.0
 47
0.0
 47
1.0
171
     0
 49
0.0008202099737533
 49
0.0
 49
0.0
 49
0.0
 49
0.0
 49
0.0008202099737533
 49
0.0
 49
0.0
 49
0.0
 49
0.0
 49
1.0
 49
0.0
 49
0.0
 49
0.0
 49
0.0
 49
1.0
175
     0
142
0.0008202099737533
142
0.0
142
0.0
142
0.0
142
0.0
142
0.0008202099737533
142
0.0
142
0.0
142
0.0
142
0.0
142
1.0
142
0.0
142
0.0
142
0.0
142
0.0
142
1.0
179
     0
144
0.0008202099737533
144
0.0
144
0.0
144
0.0
144
0.0
144
0.0008202099737533
144
0.0
144
0.0
144
0.0
144
0.0
144
1.0
144
0.0
144
0.0
144
0.0
144
0.0
144
1.0
147
0.0008202099737533
147
0.0
147
0.0
147
0.0
147
0.0
147
0.0008202099737533
147
0.0
147
0.0
147
0.0
147
0.0
147
1.0
147
0.0
147
0.0
147
0.0
147
0.0
147
1.0
  0
MATERIAL
  5
10015
102
{ACAD_XDICTIONARY
360
10016
102
}
102
{ACAD_REACTORS
330
10004
102
}
330
10004
100
AcDbMaterial
  1
Global
 72
     0
 43
0.0008202099737533
 43
0.0
 43
0.0
 43
0.0
 43
0.0
 43
0.0008202099737533
 43
0.0
 43
0.0
 43
0.0
 43
0.0
 43
1.0
 43
0.0
 43
0.0
 43
0.0
 43
0.0
 43
1.0
 77
     0
 47
0.0008202099737533
 47
0.0
 47
0.0
 47
0.0
 47
0.0
 47
0.0008202099737533
 47
0.0
 47
0.0
 47
0.0
 47
0.0
 47
1.0
 47
0.0
 47
0.0
 47
0.0
 47
0.0
 47
1.0
171
     0
 49
0.0008202099737533
 49
0.0
 49
0.0
 49
0.0
 49
0.0
 49
0.0008202099737533
 49
0.0
 49
0.0
 49
0.0
 49
0.0
 49
1.0
 49
0.0
 49
0.0
 49
0.0
 49
0.0
 49
1.0
175
     0
142
0.0008202099737533
142
0.0
142
0.0
142
0.0
142
0.0
142
0.0008202099737533
142
0.0
142
0.0
142
0.0
142
0.0
142
1.0
142
0.0
142
0.0
142
0.0
142
0.0
142
1.0
179
     0
144
0.0008202099737533
144
0.0
144
0.0
144
0.0
144
0.0
144
0.0008202099737533
144
0.0
144
0.0
144
0.0
144
0.0
144
1.0
144
0.0
144
0.0
144
0.0
144
0.0
144
1.0
147
0.0008202099737533
147
0.0
147
0.0
147
0.0
147
0.0
147
0.0008202099737533
147
0.0
147
0.0
147
0.0
147
0.0
147
1.0
147
0.0
147
0.0
147
0.0
147
0.0
147
1.0
  0
MLEADERSTYLE
  5
1004E
102
{ACAD_REACTORS
330
1004D
102
}
330
1004D
100
AcDbMLeaderStyle
179
     2
170
     2
171
     1
172
     0
 90
        2
 40
0.0
 41
0.0
173
     1
 91
-1056964608
340
14
 92
       -2
290
     1
 42
0.09
291
     1
 43
0.36
  3
Standard
 44
0.18
300

342
11
174
     1
178
     6
175
     1
176
     0
 93
-1056964608
 45
0.18
292
     0
297
     0
 46
0.18
 94
-1056964608
 47
1.0
 49
1.0
140
1.0
293
     1
141
0.0
294
     1
177
     0
142
1.0
295
     0
296
     0
143
0.125
271
     0
272
     9
273
     9
298
     0
  0
MLINESTYLE
  5
1003A
102
{ACAD_REACTORS
330
17
102
}
330
17
100
AcDbMlineStyle
  2
STANDARD
 70
     0
  3

 62
   256
 51
90.0
 52
90.0
 71
     2
 49
0.5
 62
   256
  6
BYLAYER
 49
-0.5
 62
   256
  6
BYLAYER
  0
ACDBPLACEHOLDER
  5
10003
102
{ACAD_REACTORS
330
10002
102
}
330
10002
  0
SCALE
  5
1003C
102
{ACAD_REACTORS
330
1003B
102
}
330
1003B
100
AcDbScale
 70
     0
300
1:1
140
1.0
141
1.0
290
     1
  0
SCALE
  5
1003D
102
{ACAD_REACTORS
330
1003B
102
}
330
1003B
100
AcDbScale
 70
     0
300
1/128" = 1'-0"
140
0.0078125
141
12.0
290
     0
  0
SCALE
  5
1003E
102
{ACAD_REACTORS
330
1003B
102
}
330
1003B
100
AcDbScale
 70
     0
300
1/64" = 1'-0"
140
0.015625
141
12.0
290
     0
  0
SCALE
  5
1003F
102
{ACAD_REACTORS
330
1003B
102
}
330
1003B
100
AcDbScale
 70
     0
300
1/32" = 1'-0"
140
0.03125
141
12.0
290
     0
  0
SCALE
  5
10040
102
{ACAD_REACTORS
330
1003B
102
}
330
1003B
100
AcDbScale
 70
     0
300
1/16" = 1'-0"
140
0.0625
141
12.0
290
     0
  0
SCALE
  5
10041
102
{ACAD_REACTORS
330
1003B
102
}
330
1003B
100
AcDbScale
 70
     0
300
3/32" = 1'-0"
140
0.09375
141
12.0
290
     0
  0
SCALE
  5
10042
102
{ACAD_REACTORS
330
1003B
102
}
330
1003B
100
AcDbScale
 70
     0
300
1/8" = 1'-0"
140
0.125
141
12.0
290
     0
  0
SCALE
  5
10043
102
{ACAD_REACTORS
330
1003B
102
}
330
1003B
100
AcDbScale
 70
     0
300
3/16" = 1'-0"
140
0.1875
141
12.0
290
     0
  0
SCALE
  5
10044
102
{ACAD_REACTORS
330
1003B
102
}
330
1003B
100
AcDbScale
 70
     0
300
1/4" = 1'-0"
140
0.25
141
12.0
290
     0
  0
SCALE
  5
10045
102
{ACAD_REACTORS
330
1003B
102
}
330
1003B
100
AcDbScale
 70
     0
300
3/8" = 1'-0"
140
0.375
141
12.0
290
     0
  0
SCALE
  5
10046
102
{ACAD_REACTORS
330
1003B
102
}
330
1003B
100
AcDbScale
 70
     0
300
1/2" = 1'-0"
140
0.5
141
12.0
290
     0
  0
SCALE
  5
10047
102
{ACAD_REACTORS
330
1003B
102
}
330
1003B
100
AcDbScale
 70
     0
300
3/4" = 1'-0"
140
0.75
141
12.0
290
     0
  0
SCALE
  5
10048
102
{ACAD_REACTORS
330
1003B
102
}
330
1003B
100
AcDbScale
 70
     0
300
1" = 1'-0"
140
1.0
141
12.0
290
     0
  0
SCALE
  5
10049
102
{ACAD_REACTORS
330
1003B
102
}
330
1003B
100
AcDbScale
 70
     0
300
1-1/2" = 1'-0"
140
1.5
141
12.0
290
     0
  0
SCALE
  5
1004A
102
{ACAD_REACTORS
330
1003B
102
}
330
1003B
100
AcDbScale
 70
     0
300
3" = 1'-0"
140
3.0
141
12.0
290
     0
  0
SCALE
  5
1004B
102
{ACAD_REACTORS
330
1003B
102
}
330
1003B
100
AcDbScale
 70
     0
300
6" = 1'-0"
140
6.0
141
12.0
290
     0
  0
SCALE
  5
1004C
102
{ACAD_REACTORS
330
1003B
102
}
330
1003B
100
AcDbScale
 70
     0
300
1'-0" = 1'-0"
140
12.0
141
12.0
290
     0
  0
ACDBSECTIONVIEWSTYLE
  5
10050
102
{ACAD_REACTORS
330
1004F
102
}
330
1004F
100
AcDbModelDocViewStyle
 70
     0
  3
Imperial24
290
     0
300
Imperial24
 90
        0
100
AcDbSectionViewStyle
 70
     0
 71
     0
 90
       78
 71
     1
340
11
 62
   256
 40
0.24
340
0
340
0
 62
   256
 40
0.24
300
I, O, Q, S, X, Z
 40
0.48
 90
        3
 40
0.18
 90
        1
 71
     2
340
0
 90
       25
 62
   256
340
0
 90
       50
 62
   256
 40
0.24
 40
0.0
 40
0.24
 71
     3
340
11
 62
   256
 40
0.24
 90
        1
 40
0.75
 90
        1
300
%<\AcVar ViewType \f "%tc1">% %<\AcVar ViewSectionStartId>%-%<\AcVar ViewSectionEndId>%\PSCALE %<\AcVar ViewScale \f "%sn">%
 71
     4
 62
   256
 62
   257
300
ANSI31
 40
1.0
 90
        0
290
     0
290
     0
 90
        6
 40
0.0
 40
1.570796326794896
 40
0.2617993877991494
 40
1.308996938995747
 40
-0.2617993877991494
 40
1.832595714594046
  0
ACDBSECTIONVIEWSTYLE
  5
100D1
102
{ACAD_REACTORS
330
1004F
102
}
330
1004F
100
AcDbModelDocViewStyle
 70
     0
  3
Metric50
290
     0
300
Metric50
 90
        0
100
AcDbSectionViewStyle
 70
     0
 71
     0
 90
      102
 71
     1
340
11
 62
   256
 40
5.0
340
0
340
0
 62
   256
 40
5.0
300
I, O, Q, S, X, Z
 40
10.0
 90
        0
 40
2.5
 90
        0
 71
     2
340
10001
 90
       25
 62
   256
340
10001
 90
       50
 62
   256
 40
5.0
 40
2.5
 40
5.0
 71
     3
340
11
 62
   256
 40
5.0
 90
        0
 40
15.0
 90
        1
300
%<\AcVar ViewSectionStartId>%-%<\AcVar ViewSectionEndId>% (%<\AcVar ViewScale \f "%sn">%)
 71
     4
 62
   256
 62
   257
300
ANSI31
 40
1.0
 90
        0
290
     0
290
     0
 90
        6
 40
0.0
 40
1.570796326794896
 40
0.2617993877991494
 40
1.308996938995747
 40
-0.2617993877991494
 40
1.832595714594046
  0
TABLESTYLE
  5
10039
102
{ACAD_XDICTIONARY
360
101F0
102
}
102
{ACAD_REACTORS
330
10038
102
}
330
10038
100
AcDbTableStyle
280
     0
  3
Standard
 70
     0
 71
     0
 40
0.06
 41
0.06
280
     0
281
     0
  7
STANDARD
140
0.18
170
     2
 62
     0
 63
     7
283
     0
 90
      512
 91
        0
  1

274
    -2
284
     1
 64
     0
275
    -2
285
     1
 65
     0
276
    -2
286
     1
 66
     0
277
    -2
287
     1
 67
     0
278
    -2
288
     1
 68
     0
279
    -2
289
     1
 69
     0
  7
STANDARD
140
0.25
170
     5
 62
     0
 63
     7
283
     0
 90
      512
 91
        0
  1

274
    -2
284
     1
 64
     0
275
    -2
285
     1
 65
     0
276
    -2
286
     1
 66
     0
277
    -2
287
     1
 67
     0
278
    -2
288
     1
 68
     0
279
    -2
289
     1
 69
     0
  7
STANDARD
140
0.18
170
     5
 62
     0
 63
     7
283
     0
 90
      512
 91
        0
  1

274
    -2
284
     1
 64
     0
275
    -2
285
     1
 65
     0
276
    -2
286
     1
 66
     0
277
    -2
287
     1
 67
     0
278
    -2
288
     1
 68
     0
279
    -2
289
     1
 69
     0
  0
VISUALSTYLE
  5
10023
102
{ACAD_REACTORS
330
1001D
102
}
330
1001D
100
AcDbVisualStyle
  2
2dWireframe
 70
     4
177
     3
291
     0
 70
    58
 90
        0
176
     1
 90
        2
176
     1
 90
        0
176
     1
 90
        0
176
     1
 40
0.6
176
     1
 40
30.0
176
     1
 62
     7
420
 16777215
176
     1
 90
        1
176
     1
 90
        4
176
     1
 62
     7
176
     1
 62
   257
176
     1
 90
        1
176
     1
 90
        1
176
     1
 40
1.0
176
     1
 90
        0
176
     1
 62
   257
176
     1
 40
1.0
176
     1
 90
        1
176
     1
 90
        6
176
     1
 90
        2
176
     1
 62
     7
176
     1
 90
        5
176
     1
 90
        0
176
     1
 90
        0
176
     1
290
     0
176
     1
 90
        1
176
     1
 40
0.0
176
     1
 90
        0
176
     1
290
     1
176
     1
290
     1
176
     1
290
     0
176
     1
290
     0
176
     1
290
     0
176
     1
290
     0
176
     1
290
     0
176
     1
290
     0
176
     1
290
     0
176
     1
 90
       50
176
     1
 40
0.0
176
     1
 40
1.0
176
     1
 90
        0
176
     1
 62
    18
420
        0
176
     1
 90
       50
176
     1
 90
        3
176
     1
 62
     5
420
      255
176
     1
290
     0
176
     1
 90
       50
176
     1
 90
       50
176
     1
 90
       50
176
     1
290
     0
176
     1
 90
       50
176
     1
 62
   256
176
     0
 40
1.0
176
     0
 90
        2
176
     1
  1
strokes_ogs.tif
176
     1
290
     0
176
     1
 40
1.0
176
     1
 40
1.0
176
     1
  0
VISUALSTYLE
  5
10022
102
{ACAD_REACTORS
330
1001D
102
}
330
1001D
100
AcDbVisualStyle
  2
Basic
 70
     7
177
     3
291
     1
 70
    58
 90
        1
176
     1
 90
        0
176
     1
 90
        1
176
     1
 90
        0
176
     1
 40
0.6
176
     1
 40
30.0
176
     1
 62
     7
420
 16777215
176
     1
 90
        0
176
     1
 90
        4
176
     1
 62
     7
176
     1
 62
   257
176
     1
 90
        1
176
     1
 90
        1
176
     1
 40
1.0
176
     1
 90
        8
176
     1
 62
     7
176
     1
 40
1.0
176
     1
 90
        1
176
     1
 90
        6
176
     1
 90
        2
176
     1
 62
     7
176
     1
 90
        5
176
     1
 90
        0
176
     1
 90
        0
176
     1
290
     0
176
     1
 90
        1
176
     1
 40
0.0
176
     1
 90
        0
176
     1
290
     0
176
     1
290
     1
176
     1
290
     1
176
     1
290
     0
176
     1
290
     0
176
     1
290
     0
176
     1
290
     0
176
     1
290
     0
176
     1
290
     0
176
     1
 90
       50
176
     1
 40
0.0
176
     1
 40
1.0
176
     1
 90
        0
176
     1
 62
    18
420
        0
176
     1
 90
       50
176
     1
 90
        3
176
     1
 62
     5
420
      255
176
     1
290
     0
176
     1
 90
       50
176
     1
 90
       50
176
     1
 90
       50
176
     1
290
     0
176
     1
 90
       50
176
     1
 62
   256
176
     0
 40
1.0
176
     0
 90
        2
176
     1
  1
strokes_ogs.tif
176
     1
290
     0
176
     1
 40
1.0
176
     1
 40
1.0
176
     1
  0
VISUALSTYLE
  5
10029
102
{ACAD_REACTORS
330
1001D
102
}
330
1001D
100
AcDbVisualStyle
  2
Brighten
 70
    12
177
     3
291
     1
 70
    58
 90
        2
176
     1
 90
        2
176
     1
 90
        0
176
     1
 90
        0
176
     1
 40
0.6
176
     1
 40
30.0
176
     1
 62
     7
420
 16777215
176
     1
 90
        1
176
     1
 90
        4
176
     1
 62
     7
176
     1
 62
   257
176
     1
 90
        1
176
     1
 90
        1
176
     1
 40
1.0
176
     1
 90
        8
176
     1
 62
     7
176
     1
 40
1.0
176
     1
 90
        1
176
     1
 90
        6
176
     1
 90
        2
176
     1
 62
     7
176
     1
 90
        5
176
     1
 90
        0
176
     1
 90
        0
176
     1
290
     0
176
     1
 90
        1
176
     1
 40
50.0
176
     1
 90
        0
176
     1
290
     0
176
     1
290
     1
176
     1
290
     1
176
     1
290
     0
176
     1
290
     0
176
     1
290
     0
176
     1
290
     0
176
     1
290
     0
176
     1
290
     0
176
     1
 90
       50
176
     1
 40
0.0
176
     1
 40
1.0
176
     1
 90
        0
176
     1
 62
    18
420
        0
176
     1
 90
       50
176
     1
 90
        3
176
     1
 62
     5
420
      255
176
     1
290
     0
176
     1
 90
       50
176
     1
 90
       50
176
     1
 90
       50
176
     1
290
     0
176
     1
 90
       50
176
     1
 62
   256
176
     0
 40
1.0
176
     0
 90
        2
176
     1
  1
strokes_ogs.tif
176
     1
290
     0
176
     1
 40
1.0
176
     1
 40
1.0
176
     1
  0
VISUALSTYLE
  5
1002D
102
{ACAD_REACTORS
330
1001D
102
}
330
1001D
100
AcDbVisualStyle
  2
ColorChange
 70
    16
177
     3
291
     1
 70
    58
 90
        2
176
     1
 90
        2
176
     1
 90
        3
176
     1
 90
        0
176
     1
 40
0.6
176
     1
 40
30.0
176
     1
 62
     8
420
  8421504
176
     1
 90
        1
176
     1
 90
        4
176
     1
 62
     7
176
     1
 62
   257
176
     1
 90
        1
176
     1
 90
        1
176
     1
 40
1.0
176
     1
 90
        8
176
     1
 62
     8
420
  8421504
176
     1
 40
1.0
176
     1
 90
        1
176
     1
 90
        6
176
     1
 90
        2
176
     1
 62
     7
176
     1
 90
        5
176
     1
 90
        0
176
     1
 90
        0
176
     1
290
     0
176
     1
 90
        1
176
     1
 40
0.0
176
     1
 90
        0
176
     1
290
     0
176
     1
290
     1
176
     1
290
     1
176
     1
290
     0
176
     1
290
     0
176
     1
290
     0
176
     1
290
     0
176
     1
290
     0
176
     1
290
     0
176
     1
 90
       50
176
     1
 40
0.0
176
     1
 40
1.0
176
     1
 90
        0
176
     1
 62
    18
420
        0
176
     1
 90
       50
176
     1
 90
        3
176
     1
 62
     5
420
      255
176
     1
290
     0
176
     1
 90
       50
176
     1
 90
       50
176
     1
 90
       50
176
     1
290
     0
176
     1
 90
       50
176
     1
 62
   256
176
     0
 40
1.0
176
     0
 90
        2
176
     1
  1
strokes_ogs.tif
176
     1
290
     0
176
     1
 40
1.0
176
     1
 40
1.0
176
     1
  0
VISUALSTYLE
  5
10026
102
{ACAD_REACTORS
330
1001D
102
}
330
1001D
100
AcDbVisualStyle
  2
Conceptual
 70
     9
177
     3
291
     0
 70
    58
 90
        3
176
     1
 90
        2
176
     1
 90
        0
176
     1
 90
        0
176
     1
 40
0.6
176
     1
 40
30.0
176
     1
 62
     7
420
 16777215
176
     1
 90
        2
176
     1
 90
        2
176
     1
 62
     7
176
     1
 62
   257
176
     1
 90
        1
176
     1
 90
        1
176
     1
 40
179.0
176
     1
 90
        8
176
     1
 62
     7
176
     1
 40
1.0
176
     1
 90
        1
176
     1
 90
        6
176
     1
 90
        2
176
     1
 62
     7
176
     1
 90
        3
176
     1
 90
        0
176
     1
 90
        0
176
     1
290
     0
176
     1
 90
        1
176
     1
 40
0.0
176
     1
 90
        0
176
     1
290
     0
176
     1
290
     1
176
     1
290
     1
176
     1
290
     0
176
     1
290
     0
176
     1
290
     0
176
     1
290
     0
176
     1
290
     0
176
     1
290
     0
176
     1
 90
       50
176
     1
 40
0.0
176
     1
 40
1.0
176
     1
 90
        0
176
     1
 62
    18
420
        0
176
     1
 90
       50
176
     1
 90
        3
176
     1
 62
     5
420
      255
176
     1
290
     0
176
     1
 90
       50
176
     1
 90
       50
176
     1
 90
       50
176
     1
290
     0
176
     1
 90
       50
176
     1
 62
   256
176
     0
 40
1.0
176
     0
 90
        2
176
     1
  1
strokes_ogs.tif
176
     1
290
     0
176
     1
 40
1.0
176
     1
 40
1.0
176
     1
  0
VISUALSTYLE
  5
10028
102
{ACAD_REACTORS
330
1001D
102
}
330
1001D
100
AcDbVisualStyle
  2
Dim
 70
    11
177
     3
291
     1
 70
    58
 90
        2
176
     1
 90
        2
176
     1
 90
        0
176
     1
 90
        0
176
     1
 40
0.6
176
     1
 40
30.0
176
     1
 62
     7
420
 16777215
176
     1
 90
        1
176
     1
 90
        4
176
     1
 62
     7
176
     1
 62
   257
176
     1
 90
        1
176
     1
 90
        1
176
     1
 40
1.0
176
     1
 90
        8
176
     1
 62
     7
176
     1
 40
1.0
176
     1
 90
        1
176
     1
 90
        6
176
     1
 90
        2
176
     1
 62
     7
176
     1
 90
        5
176
     1
 90
        0
176
     1
 90
        0
176
     1
290
     0
176
     1
 90
        1
176
     1
 40
-50.0
176
     1
 90
        0
176
     1
290
     0
176
     1
290
     1
176
     1
290
     1
176
     1
290
     0
176
     1
290
     0
176
     1
290
     0
176
     1
290
     0
176
     1
290
     0
176
     1
290
     0
176
     1
 90
       50
176
     1
 40
0.0
176
     1
 40
1.0
176
     1
 90
        0
176
     1
 62
    18
420
        0
176
     1
 90
       50
176
     1
 90
        3
176
     1
 62
     5
420
      255
176
     1
290
     0
176
     1
 90
       50
176
     1
 90
       50
176
     1
 90
       50
176
     1
290
     0
176
     1
 90
       50
176
     1
 62
   256
176
     0
 40
1.0
176
     0
 90
        2
176
     1
  1
strokes_ogs.tif
176
     1
290
     0
176
     1
 40
1.0
176
     1
 40
1.0
176
     1
  0
VISUALSTYLE
  5
10035
102
{ACAD_REACTORS
330
1001D
102
}
330
1001D
100
AcDbVisualStyle
  2
EdgeColorOff
 70
    22
177
     3
291
     1
 70
    58
 90
        2
176
     0
 90
        2
176
     0
 90
        0
176
     0
 90
        0
176
     0
 40
0.6
176
     0
 40
30.0
176
     0
 62
     7
420
 16777215
176
     0
 90
        1
176
     0
 90
        4
176
     0
 62
     7
176
     0
 62
   257
176
     0
 90
        1
176
     0
 90
        1
176
     0
 40
1.0
176
     0
 90
        8
176
     2
 62
     7
176
     0
 40
1.0
176
     0
 90
        1
176
     0
 90
        6
176
     0
 90
        2
176
     0
 62
     7
176
     0
 90
        5
176
     0
 90
        0
176
     0
 90
        0
176
     0
290
     0
176
     0
 90
        1
176
     0
 40
0.0
176
     0
 90
        0
176
     0
290
     0
176
     1
290
     1
176
     1
290
     1
176
     1
290
     0
176
     1
290
     0
176
     1
290
     0
176
     1
290
     0
176
     1
290
     0
176
     1
290
     0
176
     1
 90
       50
176
     0
 40
0.0
176
     0
 40
1.0
176
     0
 90
        0
176
     0
 62
    18
420
        0
176
     0
 90
       50
176
     0
 90
        3
176
     0
 62
     5
420
      255
176
     0
290
     0
176
     1
 90
       50
176
     0
 90
       50
176
     0
 90
       50
176
     0
290
     0
176
     1
 90
       50
176
     0
 62
   256
176
     0
 40
1.0
176
     0
 90
        2
176
     0
  1
strokes_ogs.tif
176
     0
290
     0
176
     1
 40
1.0
176
     0
 40
1.0
176
     0
  0
VISUALSTYLE
  5
1002C
102
{ACAD_REACTORS
330
1001D
102
}
330
1001D
100
AcDbVisualStyle
  2
Facepattern
 70
    15
177
     3
291
     1
 70
    58
 90
        2
176
     1
 90
        2
176
     1
 90
        0
176
     1
 90
        0
176
     1
 40
0.6
176
     1
 40
30.0
176
     1
 62
     7
420
 16777215
176
     1
 90
        1
176
     1
 90
        4
176
     1
 62
     7
176
     1
 62
   257
176
     1
 90
        1
176
     1
 90
        1
176
     1
 40
1.0
176
     1
 90
        8
176
     1
 62
     7
176
     1
 40
1.0
176
     1
 90
        1
176
     1
 90
        6
176
     1
 90
        2
176
     1
 62
     7
176
     1
 90
        5
176
     1
 90
        0
176
     1
 90
        0
176
     1
290
     0
176
     1
 90
        1
176
     1
 40
0.0
176
     1
 90
        0
176
     1
290
     0
176
     1
290
     1
176
     1
290
     1
176
     1
290
     0
176
     1
290
     0
176
     1
290
     0
176
     1
290
     0
176
     1
290
     0
176
     1
290
     0
176
     1
 90
       50
176
     1
 40
0.0
176
     1
 40
1.0
176
     1
 90
        0
176
     1
 62
    18
420
        0
176
     1
 90
       50
176
     1
 90
        3
176
     1
 62
     5
420
      255
176
     1
290
     0
176
     1
 90
       50
176
     1
 90
       50
176
     1
 90
       50
176
     1
290
     0
176
     1
 90
       50
176
     1
 62
   256
176
     0
 40
1.0
176
     0
 90
        2
176
     1
  1
strokes_ogs.tif
176
     1
290
     0
176
     1
 40
1.0
176
     1
 40
1.0
176
     1
  0
VISUALSTYLE
  5
1001E
102
{ACAD_REACTORS
330
1001D
102
}
330
1001D
100
AcDbVisualStyle
  2
Flat
 70
     0
177
     3
291
     1
 70
    58
 90
        2
176
     1
 90
        1
176
     1
 90
        1
176
     1
 90
        2
176
     1
 40
0.6
176
     1
 40
30.0
176
     1
 62
     7
420
 16777215
176
     1
 90
        0
176
     1
 90
        0
176
     1
 62
     7
176
     1
 62
   257
176
     1
 90
        1
176
     1
 90
        1
176
     1
 40
1.0
176
     1
 90
        8
176
     1
 62
     7
176
     1
 40
1.0
176
     1
 90
        1
176
     1
 90
        6
176
     1
 90
        2
176
     1
 62
     7
176
     1
 90
        5
176
     1
 90
        0
176
     1
 90
        0
176
     1
290
     0
176
     1
 90
       13
176
     1
 40
0.0
176
     1
 90
        0
176
     1
290
     0
176
     1
290
     1
176
     1
290
     1
176
     1
290
     0
176
     1
290
     0
176
     1
290
     0
176
     1
290
     0
176
     1
290
     0
176
     1
290
     0
176
     1
 90
       50
176
     1
 40
0.0
176
     1
 40
1.0
176
     1
 90
        0
176
     1
 62
    18
420
        0
176
     1
 90
       50
176
     1
 90
        3
176
     1
 62
     5
420
      255
176
     1
290
     0
176
     1
 90
       50
176
     1
 90
       50
176
     1
 90
       50
176
     1
290
     0
176
     1
 90
       50
176
     1
 62
   256
176
     0
 40
1.0
176
     0
 90
        2
176
     1
  1
strokes_ogs.tif
176
     1
290
     0
176
     1
 40
1.0
176
     1
 40
1.0
176
     1
  0
VISUALSTYLE
  5
1001F
102
{ACAD_REACTORS
330
1001D
102
}
330
1001D
100
AcDbVisualStyle
  2
FlatWithEdges
 70
     1
177
     3
291
     1
 70
    58
 90
        2
176
     1
 90
        1
176
     1
 90
        1
176
     1
 90
        2
176
     1
 40
0.6
176
     1
 40
30.0
176
     1
 62
     7
420
 16777215
176
     1
 90
        1
176
     1
 90
        0
176
     1
 62
     7
176
     1
 62
   257
176
     1
 90
        1
176
     1
 90
        1
176
     1
 40
1.0
176
     1
 90
        0
176
     1
 62
   257
176
     1
 40
1.0
176
     1
 90
        1
176
     1
 90
        6
176
     1
 90
        2
176
     1
 62
     7
176
     1
 90
        5
176
     1
 90
        0
176
     1
 90
        0
176
     1
290
     0
176
     1
 90
       13
176
     1
 40
0.0
176
     1
 90
        0
176
     1
290
     0
176
     1
290
     1
176
     1
290
     1
176
     1
290
     0
176
     1
290
     0
176
     1
290
     0
176
     1
290
     0
176
     1
290
     0
176
     1
290
     0
176
     1
 90
       50
176
     1
 40
0.0
176
     1
 40
1.0
176
     1
 90
        0
176
     1
 62
    18
420
        0
176
     1
 90
       50
176
     1
 90
        3
176
     1
 62
     5
420
      255
176
     1
290
     0
176
     1
 90
       50
176
     1
 90
       50
176
     1
 90
       50
176
     1
290
     0
176
     1
 90
       50
176
     1
 62
   256
176
     0
 40
1.0
176
     0
 90
        2
176
     1
  1
strokes_ogs.tif
176
     1
290
     0
176
     1
 40
1.0
176
     1
 40
1.0
176
     1
  0
VISUALSTYLE
  5
10020
102
{ACAD_REACTORS
330
1001D
102
}
330
1001D
100
AcDbVisualStyle
  2
Gouraud
 70
     2
177
     3
291
     1
 70
    58
 90
        2
176
     1
 90
        2
176
     1
 90
        1
176
     1
 90
        2
176
     1
 40
0.6
176
     1
 40
30.0
176
     1
 62
     7
420
 16777215
176
     1
 90
        0
176
     1
 90
        0
176
     1
 62
     7
176
     1
 62
   257
176
     1
 90
        1
176
     1
 90
        1
176
     1
 40
1.0
176
     1
 90
        0
176
     1
 62
     7
176
     1
 40
1.0
176
     1
 90
        1
176
     1
 90
        6
176
     1
 90
        2
176
     1
 62
     7
176
     1
 90
        5
176
     1
 90
        0
176
     1
 90
        0
176
     1
290
     0
176
     1
 90
       13
176
     1
 40
0.0
176
     1
 90
        0
176
     1
290
     0
176
     1
290
     1
176
     1
290
     1
176
     1
290
     0
176
     1
290
     0
176
     1
290
     0
176
     1
290
     0
176
     1
290
     0
176
     1
290
     0
176
     1
 90
       50
176
     1
 40
0.0
176
     1
 40
1.0
176
     1
 90
        0
176
     1
 62
    18
420
        0
176
     1
 90
       50
176
     1
 90
        3
176
     1
 62
     5
420
      255
176
     1
290
     0
176
     1
 90
       50
176
     1
 90
       50
176
     1
 90
       50
176
     1
290
     0
176
     1
 90
       50
176
     1
 62
   256
176
     0
 40
1.0
176
     0
 90
        2
176
     1
  1
strokes_ogs.tif
176
     1
290
     0
176
     1
 40
1.0
176
     1
 40
1.0
176
     1
  0
VISUALSTYLE
  5
10021
102
{ACAD_REACTORS
330
1001D
102
}
330
1001D
100
AcDbVisualStyle
  2
GouraudWithEdges
 70
     3
177
     3
291
     1
 70
    58
 90
        2
176
     1
 90
        2
176
     1
 90
        1
176
     1
 90
        2
176
     1
 40
0.6
176
     1
 40
30.0
176
     1
 62
     7
420
 16777215
176
     1
 90
        1
176
     1
 90
        0
176
     1
 62
     7
176
     1
 62
   257
176
     1
 90
        1
176
     1
 90
        1
176
     1
 40
1.0
176
     1
 90
        0
176
     1
 62
   257
176
     1
 40
1.0
176
     1
 90
        1
176
     1
 90
        6
176
     1
 90
        2
176
     1
 62
     7
176
     1
 90
        5
176
     1
 90
        0
176
     1
 90
        0
176
     1
290
     0
176
     1
 90
       13
176
     1
 40
0.0
176
     1
 90
        0
176
     1
290
     0
176
     1
290
     1
176
     1
290
     1
176
     1
290
     0
176
     1
290
     0
176
     1
290
     0
176
     1
290
     0
176
     1
290
     0
176
     1
290
     0
176
     1
 90
       50
176
     1
 40
0.0
176
     1
 40
1.0
176
     1
 90
        0
176
     1
 62
    18
420
        0
176
     1
 90
       50
176
     1
 90
        3
176
     1
 62
     5
420
      255
176
     1
290
     0
176
     1
 90
       50
176
     1
 90
       50
176
     1
 90
       50
176
     1
290
     0
176
     1
 90
       50
176
     1
 62
   256
176
     0
 40
1.0
176
     0
 90
        2
176
     1
  1
strokes_ogs.tif
176
     1
290
     0
176
     1
 40
1.0
176
     1
 40
1.0
176
     1
  0
VISUALSTYLE
  5
10025
102
{ACAD_REACTORS
330
1001D
102
}
330
1001D
100
AcDbVisualStyle
  2
Hidden
 70
     6
177
     3
291
     0
 70
    58
 90
        1
176
     1
 90
        2
176
     1
 90
        2
176
     1
 90
        0
176
     1
 40
0.6
176
     1
 40
30.0
176
     1
 62
     7
420
 16777215
176
     1
 90
        2
176
     1
 90
        2
176
     1
 62
     7
176
     1
 62
   257
176
     1
 90
        2
176
     1
 90
        1
176
     1
 40
40.0
176
     1
 90
        0
176
     1
 62
   257
176
     1
 40
1.0
176
     1
 90
        1
176
     1
 90
        6
176
     1
 90
        2
176
     1
 62
     7
176
     1
 90
        3
176
     1
 90
        0
176
     1
 90
        0
176
     1
290
     0
176
     1
 90
        1
176
     1
 40
0.0
176
     1
 90
        0
176
     1
290
     0
176
     1
290
     1
176
     1
290
     1
176
     1
290
     0
176
     1
290
     0
176
     1
290
     0
176
     1
290
     0
176
     1
290
     0
176
     1
290
     0
176
     1
 90
       50
176
     1
 40
0.0
176
     1
 40
1.0
176
     1
 90
        0
176
     1
 62
    18
420
        0
176
     1
 90
       50
176
     1
 90
        3
176
     1
 62
     5
420
      255
176
     1
290
     0
176
     1
 90
       50
176
     1
 90
       50
176
     1
 90
       50
176
     1
290
     0
176
     1
 90
       50
176
     1
 62
   256
176
     0
 40
1.0
176
     0
 90
        2
176
     1
  1
strokes_ogs.tif
176
     1
290
     0
176
     1
 40
1.0
176
     1
 40
1.0
176
     1
  0
VISUALSTYLE
  5
10033
102
{ACAD_REACTORS
330
1001D
102
}
330
1001D
100
AcDbVisualStyle
  2
JitterOff
 70
    20
177
     3
291
     1
 70
    58
 90
        2
176
     0
 90
        2
176
     0
 90
        0
176
     0
 90
        0
176
     0
 40
0.6
176
     0
 40
30.0
176
     0
 62
     7
420
 16777215
176
     0
 90
        1
176
     0
 90
        4
176
     0
 62
     7
176
     0
 62
   257
176
     0
 90
        1
176
     0
 90
        1
176
     0
 40
1.0
176
     0
 90
       10
176
     2
 62
     7
176
     0
 40
1.0
176
     0
 90
        1
176
     0
 90
        6
176
     0
 90
        2
176
     0
 62
     7
176
     0
 90
        5
176
     0
 90
        0
176
     0
 90
        0
176
     0
290
     0
176
     0
 90
        1
176
     0
 40
0.0
176
     0
 90
        0
176
     0
290
     0
176
     1
290
     1
176
     1
290
     1
176
     1
290
     0
176
     1
290
     0
176
     1
290
     0
176
     1
290
     0
176
     1
290
     0
176
     1
290
     0
176
     1
 90
       50
176
     0
 40
0.0
176
     0
 40
1.0
176
     0
 90
        0
176
     0
 62
    18
420
        0
176
     0
 90
       50
176
     0
 90
        3
176
     0
 62
     5
420
      255
176
     0
290
     0
176
     1
 90
       50
176
     0
 90
       50
176
     0
 90
       50
176
     0
290
     0
176
     1
 90
       50
176
     0
 62
   256
176
     0
 40
1.0
176
     0
 90
        2
176
     0
  1
strokes_ogs.tif
176
     0
290
     0
176
     1
 40
1.0
176
     0
 40
1.0
176
     0
  0
VISUALSTYLE
  5
1002B
102
{ACAD_REACTORS
330
1001D
102
}
330
1001D
100
AcDbVisualStyle
  2
Linepattern
 70
    14
177
     3
291
     1
 70
    58
 90
        2
176
     1
 90
        2
176
     1
 90
        0
176
     1
 90
        0
176
     1
 40
0.6
176
     1
 40
30.0
176
     1
 62
     7
420
 16777215
176
     1
 90
        1
176
     1
 90
        4
176
     1
 62
     7
176
     1
 62
   257
176
     1
 90
        7
176
     1
 90
        7
176
     1
 40
1.0
176
     1
 90
        8
176
     1
 62
     7
176
     1
 40
1.0
176
     1
 90
        1
176
     1
 90
        6
176
     1
 90
        2
176
     1
 62
     7
176
     1
 90
        5
176
     1
 90
        0
176
     1
 90
        0
176
     1
290
     0
176
     1
 90
        1
176
     1
 40
0.0
176
     1
 90
        0
176
     1
290
     0
176
     1
290
     1
176
     1
290
     1
176
     1
290
     0
176
     1
290
     0
176
     1
290
     0
176
     1
290
     0
176
     1
290
     0
176
     1
290
     0
176
     1
 90
       50
176
     1
 40
0.0
176
     1
 40
1.0
176
     1
 90
        0
176
     1
 62
    18
420
        0
176
     1
 90
       50
176
     1
 90
        3
176
     1
 62
     5
420
      255
176
     1
290
     0
176
     1
 90
       50
176
     1
 90
       50
176
     1
 90
       50
176
     1
290
     0
176
     1
 90
       50
176
     1
 62
   256
176
     0
 40
1.0
176
     0
 90
        2
176
     1
  1
strokes_ogs.tif
176
     1
290
     0
176
     1
 40
1.0
176
     1
 40
1.0
176
     1
  0
VISUALSTYLE
  5
10034
102
{ACAD_REACTORS
330
1001D
102
}
330
1001D
100
AcDbVisualStyle
  2
OverhangOff
 70
    21
177
     3
291
     1
 70
    58
 90
        2
176
     0
 90
        2
176
     0
 90
        0
176
     0
 90
        0
176
     0
 40
0.6
176
     0
 40
30.0
176
     0
 62
     7
420
 16777215
176
     0
 90
        1
176
     0
 90
        4
176
     0
 62
     7
176
     0
 62
   257
176
     0
 90
        1
176
     0
 90
        1
176
     0
 40
1.0
176
     0
 90
        9
176
     2
 62
     7
176
     0
 40
1.0
176
     0
 90
        1
176
     0
 90
        6
176
     0
 90
        2
176
     0
 62
     7
176
     0
 90
        5
176
     0
 90
        0
176
     0
 90
        0
176
     0
290
     0
176
     0
 90
        1
176
     0
 40
0.0
176
     0
 90
        0
176
     0
290
     0
176
     1
290
     1
176
     1
290
     1
176
     1
290
     0
176
     1
290
     0
176
     1
290
     0
176
     1
290
     0
176
     1
290
     0
176
     1
290
     0
176
     1
 90
       50
176
     0
 40
0.0
176
     0
 40
1.0
176
     0
 90
        0
176
     0
 62
    18
420
        0
176
     0
 90
       50
176
     0
 90
        3
176
     0
 62
     5
420
      255
176
     0
290
     0
176
     1
 90
       50
176
     0
 90
       50
176
     0
 90
       50
176
     0
290
     0
176
     1
 90
       50
176
     0
 62
   256
176
     0
 40
1.0
176
     0
 90
        2
176
     0
  1
strokes_ogs.tif
176
     0
290
     0
176
     1
 40
1.0
176
     0
 40
1.0
176
     0
  0
VISUALSTYLE
  5
10027
102
{ACAD_REACTORS
330
1001D
102
}
330
1001D
100
AcDbVisualStyle
  2
Realistic
 70
     8
177
     3
291
     0
 70
    58
 90
        2
176
     1
 90
        3
176
     1
 90
        0
176
     1
 90
        2
176
     1
 40
0.6
176
     1
 40
30.0
176
     1
 62
     7
420
 16777215
176
     1
 90
        0
176
     1
 90
        0
176
     1
 62
     7
176
     1
 62
   257
176
     1
 90
        1
176
     1
 90
        1
176
     1
 40
1.0
176
     1
 90
        8
176
     1
 62
   257
176
     1
 40
1.0
176
     1
 90
        1
176
     1
 90
        6
176
     1
 90
        2
176
     1
 62
     7
176
     1
 90
        3
176
     1
 90
        0
176
     1
 90
        0
176
     1
290
     0
176
     1
 90
       13
176
     1
 40
0.0
176
     1
 90
        0
176
     1
290
     0
176
     1
290
     1
176
     1
290
     1
176
     1
290
     0
176
     1
290
     0
176
     1
290
     0
176
     1
290
     0
176
     1
290
     0
176
     1
290
     0
176
     1
 90
       50
176
     1
 40
0.0
176
     1
 40
1.0
176
     1
 90
        0
176
     1
 62
    18
420
        0
176
     1
 90
       50
176
     1
 90
        3
176
     1
 62
     5
420
      255
176
     1
290
     0
176
     1
 90
       50
176
     1
 90
       50
176
     1
 90
       50
176
     1
290
     0
176
     1
 90
       50
176
     1
 62
   256
176
     0
 40
1.0
176
     0
 90
        2
176
     1
  1
strokes_ogs.tif
176
     1
290
     0
176
     1
 40
1.0
176
     1
 40
1.0
176
     1
  0
VISUALSTYLE
  5
10032
102
{ACAD_REACTORS
330
1001D
102
}
330
1001D
100
AcDbVisualStyle
  2
Shaded
 70
    27
177
     3
291
     0
 70
    58
 90
        2
176
     1
 90
        2
176
     1
 90
        1
176
     1
 90
        2
176
     1
 40
0.6
176
     1
 40
30.0
176
     1
 62
     7
420
 16777215
176
     1
 90
        0
176
     1
 90
        4
176
     1
 62
     7
176
     1
 62
   257
176
     1
 90
        1
176
     1
 90
        1
176
     1
 40
1.0
176
     1
 90
        8
176
     1
 62
   257
176
     1
 40
1.0
176
     1
 90
        1
176
     1
 90
        6
176
     1
 90
        2
176
     1
 62
     8
420
  7895160
176
     1
 90
        3
176
     1
 90
        0
176
     1
 90
        0
176
     1
290
     0
176
     1
 90
        5
176
     1
 40
0.0
176
     1
 90
        0
176
     1
290
     0
176
     1
290
     1
176
     1
290
     1
176
     1
290
     0
176
     1
290
     0
176
     1
290
     0
176
     1
290
     0
176
     1
290
     0
176
     1
290
     0
176
     1
 90
       50
176
     1
 40
0.0
176
     1
 40
1.0
176
     1
 90
        0
176
     1
 62
    18
420
        0
176
     1
 90
       50
176
     1
 90
        3
176
     1
 62
     5
420
      255
176
     1
290
     0
176
     1
 90
       50
176
     1
 90
       50
176
     1
 90
       50
176
     1
290
     0
176
     1
 90
       50
176
     1
 62
   256
176
     0
 40
1.0
176
     0
 90
        2
176
     1
  1
strokes_ogs.tif
176
     1
290
     0
176
     1
 40
1.0
176
     1
 40
1.0
176
     1
  0
VISUALSTYLE
  5
10031
102
{ACAD_REACTORS
330
1001D
102
}
330
1001D
100
AcDbVisualStyle
  2
Shaded with edges
 70
    26
177
     3
291
     0
 70
    58
 90
        2
176
     1
 90
        2
176
     1
 90
        1
176
     1
 90
        2
176
     1
 40
0.6
176
     1
 40
30.0
176
     1
 62
     7
420
 16777215
176
     1
 90
        1
176
     1
 90
        2
176
     1
 62
     7
176
     1
 62
   257
176
     1
 90
        2
176
     1
 90
        1
176
     1
 40
1.0
176
     1
 90
        8
176
     1
 62
   257
176
     1
 40
1.0
176
     1
 90
        1
176
     1
 90
        6
176
     1
 90
        2
176
     1
 62
     7
176
     1
 90
        3
176
     1
 90
        0
176
     1
 90
        0
176
     1
290
     0
176
     1
 90
        5
176
     1
 40
0.0
176
     1
 90
        0
176
     1
290
     0
176
     1
290
     1
176
     1
290
     1
176
     1
290
     0
176
     1
290
     0
176
     1
290
     0
176
     1
290
     0
176
     1
290
     0
176
     1
290
     0
176
     1
 90
       50
176
     1
 40
0.0
176
     1
 40
1.0
176
     1
 90
        0
176
     1
 62
    18
420
        0
176
     1
 90
       50
176
     1
 90
        3
176
     1
 62
     5
420
      255
176
     1
290
     0
176
     1
 90
       50
176
     1
 90
       50
176
     1
 90
       50
176
     1
290
     0
176
     1
 90
       50
176
     1
 62
   256
176
     0
 40
1.0
176
     0
 90
        2
176
     1
  1
strokes_ogs.tif
176
     1
290
     0
176
     1
 40
1.0
176
     1
 40
1.0
176
     1
  0
VISUALSTYLE
  5
1002E
102
{ACAD_REACTORS
330
1001D
102
}
330
1001D
100
AcDbVisualStyle
  2
Shades of Gray
 70
    23
177
     3
291
     0
 70
    58
 90
        2
176
     1
 90
        2
176
     1
 90
        3
176
     1
 90
        0
176
     1
 40
0.6
176
     1
 40
30.0
176
     1
 62
     7
420
 16777215
176
     1
 90
        2
176
     1
 90
        2
176
     1
 62
     7
176
     1
 62
     7
176
     1
 90
        1
176
     1
 90
        1
176
     1
 40
40.0
176
     1
 90
        8
176
     1
 62
     7
176
     1
 40
1.0
176
     1
 90
        1
176
     1
 90
        6
176
     1
 90
        2
176
     1
 62
     7
176
     1
 90
        3
176
     1
 90
        0
176
     1
 90
        0
176
     1
290
     0
176
     1
 90
        1
176
     1
 40
0.0
176
     1
 90
        0
176
     1
290
     0
176
     1
290
     1
176
     1
290
     1
176
     1
290
     0
176
     1
290
     0
176
     1
290
     0
176
     1
290
     0
176
     1
290
     0
176
     1
290
     0
176
     1
 90
       50
176
     1
 40
0.0
176
     1
 40
1.0
176
     1
 90
        0
176
     1
 62
    18
420
        0
176
     1
 90
       50
176
     1
 90
        3
176
     1
 62
     5
420
      255
176
     1
290
     0
176
     1
 90
       50
176
     1
 90
       50
176
     1
 90
       50
176
     1
290
     0
176
     1
 90
       50
176
     1
 62
   256
176
     0
 40
1.0
176
     0
 90
        2
176
     1
  1
strokes_ogs.tif
176
     1
290
     0
176
     1
 40
1.0
176
     1
 40
1.0
176
     1
  0
VISUALSTYLE
  5
1002F
102
{ACAD_REACTORS
330
1001D
102
}
330
1001D
100
AcDbVisualStyle
  2
Sketchy
 70
    24
177
     3
291
     0
 70
    58
 90
        1
176
     1
 90
        2
176
     1
 90
        2
176
     1
 90
        0
176
     1
 40
0.6
176
     1
 40
30.0
176
     1
 62
     7
420
 16777215
176
     1
 90
        2
176
     1
 90
        2
176
     1
 62
     7
176
     1
 62
     7
176
     1
 90
        1
176
     1
 90
        1
176
     1
 40
40.0
176
     1
 90
       11
176
     1
 62
     7
176
     1
 40
1.0
176
     1
 90
        1
176
     1
 90
        6
176
     1
 90
        2
176
     1
 62
     7
176
     1
 90
        6
176
     1
 90
        0
176
     1
 90
        0
176
     1
290
     0
176
     1
 90
        1
176
     1
 40
0.0
176
     1
 90
        0
176
     1
290
     0
176
     1
290
     1
176
     1
290
     1
176
     1
290
     0
176
     1
290
     0
176
     1
290
     0
176
     1
290
     0
176
     1
290
     0
176
     1
290
     0
176
     1
 90
       50
176
     1
 40
0.0
176
     1
 40
1.0
176
     1
 90
        0
176
     1
 62
    18
420
        0
176
     1
 90
       50
176
     1
 90
        3
176
     1
 62
     5
420
      255
176
     1
290
     0
176
     1
 90
       50
176
     1
 90
       50
176
     1
 90
       50
176
     1
290
     0
176
     1
 90
       50
176
     1
 62
   256
176
     0
 40
1.0
176
     0
 90
        2
176
     1
  1
strokes_ogs.tif
176
     1
290
     0
176
     1
 40
1.0
176
     1
 40
1.0
176
     1
  0
VISUALSTYLE
  5
1002A
102
{ACAD_REACTORS
330
1001D
102
}
330
1001D
100
AcDbVisualStyle
  2
Thicken
 70
    13
177
     3
291
     1
 70
    58
 90
        2
176
     1
 90
        2
176
     1
 90
        0
176
     1
 90
        0
176
     1
 40
0.6
176
     1
 40
30.0
176
     1
 62
     7
420
 16777215
176
     1
 90
        1
176
     1
 90
        4
176
     1
 62
     7
176
     1
 62
   257
176
     1
 90
        1
176
     1
 90
        1
176
     1
 40
1.0
176
     1
 90
       12
176
     1
 62
     7
176
     1
 40
1.0
176
     1
 90
        1
176
     1
 90
        6
176
     1
 90
        2
176
     1
 62
     7
176
     1
 90
        5
176
     1
 90
        0
176
     1
 90
        0
176
     1
290
     0
176
     1
 90
        1
176
     1
 40
0.0
176
     1
 90
        0
176
     1
290
     0
176
     1
290
     1
176
     1
290
     1
176
     1
290
     0
176
     1
290
     0
176
     1
290
     0
176
     1
290
     0
176
     1
290
     0
176
     1
290
     0
176
     1
 90
       50
176
     1
 40
0.0
176
     1
 40
1.0
176
     1
 90
        0
176
     1
 62
    18
420
        0
176
     1
 90
       50
176
     1
 90
        3
176
     1
 62
     5
420
      255
176
     1
290
     0
176
     1
 90
       50
176
     1
 90
       50
176
     1
 90
       50
176
     1
290
     0
176
     1
 90
       50
176
     1
 62
   256
176
     0
 40
1.0
176
     0
 90
        2
176
     1
  1
strokes_ogs.tif
176
     1
290
     0
176
     1
 40
1.0
176
     1
 40
1.0
176
     1
  0
VISUALSTYLE
  5
10024
102
{ACAD_REACTORS
330
1001D
102
}
330
1001D
100
AcDbVisualStyle
  2
Wireframe
 70
     5
177
     3
291
     0
 70
    58
 90
        0
176
     1
 90
        2
176
     1
 90
        0
176
     1
 90
        0
176
     1
 40
0.6
176
     1
 40
30.0
176
     1
 62
     7
420
 16777215
176
     1
 90
        1
176
     1
 90
        4
176
     1
 62
     7
176
     1
 62
   257
176
     1
 90
        1
176
     1
 90
        1
176
     1
 40
1.0
176
     1
 90
        0
176
     1
 62
   257
176
     1
 40
1.0
176
     1
 90
        1
176
     1
 90
        6
176
     1
 90
        2
176
     1
 62
     7
176
     1
 90
        3
176
     1
 90
        0
176
     1
 90
        0
176
     1
290
     0
176
     1
 90
        1
176
     1
 40
0.0
176
     1
 90
        0
176
     1
290
     0
176
     1
290
     1
176
     1
290
     1
176
     1
290
     0
176
     1
290
     0
176
     1
290
     0
176
     1
290
     0
176
     1
290
     0
176
     1
290
     0
176
     1
 90
       50
176
     1
 40
0.0
176
     1
 40
1.0
176
     1
 90
        0
176
     1
 62
    18
420
        0
176
     1
 90
       50
176
     1
 90
        3
176
     1
 62
     5
420
      255
176
     1
290
     0
176
     1
 90
       50
176
     1
 90
       50
176
     1
 90
       50
176
     1
290
     0
176
     1
 90
       50
176
     1
 62
   256
176
     0
 40
1.0
176
     0
 90
        2
176
     1
  1
strokes_ogs.tif
176
     1
290
     0
176
     1
 40
1.0
176
     1
 40
1.0
176
     1
  0
VISUALSTYLE
  5
10030
102
{ACAD_REACTORS
330
1001D
102
}
330
1001D
100
AcDbVisualStyle
  2
X-Ray
 70
    25
177
     3
291
     0
 70
    58
 90
        2
176
     1
 90
        2
176
     1
 90
        1
176
     1
 90
        1
176
     1
 40
0.5
176
     1
 40
30.0
176
     1
 62
     7
420
 16777215
176
     1
 90
        1
176
     1
 90
        0
176
     1
 62
     7
176
     1
 62
   257
176
     1
 90
        1
176
     1
 90
        1
176
     1
 40
1.0
176
     1
 90
        8
176
     1
 62
     7
176
     1
 40
1.0
176
     1
 90
        1
176
     1
 90
        6
176
     1
 90
        2
176
     1
 62
     7
176
     1
 90
        3
176
     1
 90
        0
176
     1
 90
        0
176
     1
290
     0
176
     1
 90
       13
176
     1
 40
0.0
176
     1
 90
        0
176
     1
290
     0
176
     1
290
     1
176
     1
290
     1
176
     1
290
     0
176
     1
290
     0
176
     1
290
     0
176
     1
290
     0
176
     1
290
     0
176
     1
290
     0
176
     1
 90
       50
176
     1
 40
0.0
176
     1
 40
1.0
176
     1
 90
        0
176
     1
 62
    18
420
        0
176
     1
 90
       50
176
     1
 90
        3
176
     1
 62
     5
420
      255
176
     1
290
     0
176
     1
 90
       50
176
     1
 90
       50
176
     1
 90
       50
176
     1
290
     0
176
     1
 90
       50
176
     1
 62
   256
176
     0
 40
1.0
176
     0
 90
        2
176
     1
  1
strokes_ogs.tif
176
     1
290
     0
176
     1
 40
1.0
176
     1
 40
1.0
176
     1
  0
DICTIONARYVAR
  5
100C0
102
{ACAD_REACTORS
330
100BA
102
}
330
100BA
100
DictionaryVariables
280
     0
  1
1:1
  0
DICTIONARYVAR
  5
100BC
102
{ACAD_REACTORS
330
100BA
102
}
330
100BA
100
DictionaryVariables
280
     0
  1
STANDARD
  0
DICTIONARYVAR
  5
100BB
102
{ACAD_REACTORS
330
100BA
102
}
330
100BA
100
DictionaryVariables
280
     0
  1
STANDARD
  0
DICTIONARYVAR
  5
100BD
102
{ACAD_REACTORS
330
100BA
102
}
330
100BA
100
DictionaryVariables
280
     0
  1
Imperial24
  0
DICTIONARYVAR
  5
100BE
102
{ACAD_REACTORS
330
100BA
102
}
330
100BA
100
DictionaryVariables
280
     0
  1
Imperial24
  0
DICTIONARYVAR
  5
100C2
102
{ACAD_REACTORS
330
100BA
102
}
330
100BA
100
DictionaryVariables
280
     0
  1
1
  0
DICTIONARYVAR
  5
100C3
102
{ACAD_REACTORS
330
100BA
102
}
330
100BA
100
DictionaryVariables
280
     0
  1
15
  0
DICTIONARYVAR
  5
100C1
102
{ACAD_REACTORS
330
100BA
102
}
330
100BA
100
DictionaryVariables
280
     0
  1
0
  0
DICTIONARYVAR
  5
100BF
102
{ACAD_REACTORS
330
100BA
102
}
330
100BA
100
DictionaryVariables
280
     0
  1
0
  0
DICTIONARY
  5
1000E
330
1000D
100
AcDbDictionary
280
     1
281
     1
  3
BUMPTILE
360
10010
  3
DIFFUSETILE
360
1000F
  3
OPACITYTILE
360
10013
  3
REFLECTIONTILE
360
10012
  3
REFRACTIONTILE
360
10014
  3
SPECULARTILE
360
10011
  0
DICTIONARY
  5
10006
330
10005
100
AcDbDictionary
280
     1
281
     1
  3
BUMPTILE
360
10008
  3
DIFFUSETILE
360
10007
  3
OPACITYTILE
360
1000B
  3
REFLECTIONTILE
360
1000A
  3
REFRACTIONTILE
360
1000C
  3
SPECULARTILE
360
10009
  0
DICTIONARY
  5
10016
330
10015
100
AcDbDictionary
280
     1
281
     1
  3
BUMPTILE
360
10018
  3
DIFFUSETILE
360
10017
  3
OPACITYTILE
360
1001B
  3
REFLECTIONTILE
360
1001A
  3
REFRACTIONTILE
360
1001C
  3
SPECULARTILE
360
10019
  0
DICTIONARY
  5
101F0
330
10039
100
AcDbDictionary
280
     1
281
     1
  3
ACAD_ROUNDTRIP_2008_TABLESTYLE_CELLSTYLEMAP
360
101F1
  0
XRECORD
  5
10010
102
{ACAD_REACTORS
330
1000E
102
}
330
1000E
100
AcDbXrecord
280
     1
270
     1
271
     1
  0
XRECORD
  5
1000F
102
{ACAD_REACTORS
330
1000E
102
}
330
1000E
100
AcDbXrecord
280
     1
270
     1
271
     1
  0
XRECORD
  5
10013
102
{ACAD_REACTORS
330
1000E
102
}
330
1000E
100
AcDbXrecord
280
     1
270
     1
271
     1
  0
XRECORD
  5
10012
102
{ACAD_REACTORS
330
1000E
102
}
330
1000E
100
AcDbXrecord
280
     1
270
     1
271
     1
  0
XRECORD
  5
10014
102
{ACAD_REACTORS
330
1000E
102
}
330
1000E
100
AcDbXrecord
280
     1
270
     1
271
     1
  0
XRECORD
  5
10011
102
{ACAD_REACTORS
330
1000E
102
}
330
1000E
100
AcDbXrecord
280
     1
270
     1
271
     1
  0
XRECORD
  5
10008
102
{ACAD_REACTORS
330
10006
102
}
330
10006
100
AcDbXrecord
280
     1
270
     1
271
     1
  0
XRECORD
  5
10007
102
{ACAD_REACTORS
330
10006
102
}
330
10006
100
AcDbXrecord
280
     1
270
     1
271
     1
  0
XRECORD
  5
1000B
102
{ACAD_REACTORS
330
10006
102
}
330
10006
100
AcDbXrecord
280
     1
270
     1
271
     1
  0
XRECORD
  5
1000A
102
{ACAD_REACTORS
330
10006
102
}
330
10006
100
AcDbXrecord
280
     1
270
     1
271
     1
  0
XRECORD
  5
1000C
102
{ACAD_REACTORS
330
10006
102
}
330
10006
100
AcDbXrecord
280
     1
270
     1
271
     1
  0
XRECORD
  5
10009
102
{ACAD_REACTORS
330
10006
102
}
330
10006
100
AcDbXrecord
280
     1
270
     1
271
     1
  0
XRECORD
  5
10018
102
{ACAD_REACTORS
330
10016
102
}
330
10016
100
AcDbXrecord
280
     1
270
     1
271
     1
  0
XRECORD
  5
10017
102
{ACAD_REACTORS
330
10016
102
}
330
10016
100
AcDbXrecord
280
     1
270
     1
271
     1
  0
XRECORD
  5
1001B
102
{ACAD_REACTORS
330
10016
102
}
330
10016
100
AcDbXrecord
280
     1
270
     1
271
     1
  0
XRECORD
  5
1001A
102
{ACAD_REACTORS
330
10016
102
}
330
10016
100
AcDbXrecord
280
     1
270
     1
271
     1
  0
XRECORD
  5
1001C
102
{ACAD_REACTORS
330
10016
102
}
330
10016
100
AcDbXrecord
280
     1
270
     1
271
     1
  0
XRECORD
  5
10019
102
{ACAD_REACTORS
330
10016
102
}
330
10016
100
AcDbXrecord
280
     1
270
     1
271
     1
  0
CELLSTYLEMAP
  5
101F1
102
{ACAD_REACTORS
330
101F0
102
}
330
101F0
100
AcDbCellStyleMap
 90
        3
300
CELLSTYLE
  1
TABLEFORMAT_BEGIN
 90
        5
170
     1
 91
        0
 92
    32768
 62
   257
 93
        1
300
CONTENTFORMAT
  1
CONTENTFORMAT_BEGIN
 90
        0
 91
        0
 92
      512
 93
        0
300

 40
0.0
140
1.0
 94
        5
 62
     0
340
11
144
0.25
309
CONTENTFORMAT_END
171
     0
 94
        0
309
TABLEFORMAT_END
  1
CELLSTYLE_BEGIN
 90
        1
 91
        1
300
_TITLE
309
CELLSTYLE_END
300
CELLSTYLE
  1
TABLEFORMAT_BEGIN
 90
        5
170
     1
 91
        0
 92
        0
 62
   257
 93
        1
300
CONTENTFORMAT
  1
CONTENTFORMAT_BEGIN
 90
        0
 91
        0
 92
      512
 93
        0
300

 40
0.0
140
1.0
 94
        5
 62
     0
340
11
144
0.18
309
CONTENTFORMAT_END
171
     0
 94
        0
309
TABLEFORMAT_END
  1
CELLSTYLE_BEGIN
 90
        2
 91
        1
300
_HEADER
309
CELLSTYLE_END
300
CELLSTYLE
  1
TABLEFORMAT_BEGIN
 90
        5
170
     1
 91
        0
 92
        0
 62
   257
 93
        1
300
CONTENTFORMAT
  1
CONTENTFORMAT_BEGIN
 90
        0
 91
        0
 92
      512
 93
        0
300

 40
0.0
140
1.0
 94
        2
 62
     0
340
11
144
0.18
309
CONTENTFORMAT_END
171
     0
 94
        0
309
TABLEFORMAT_END
  1
CELLSTYLE_BEGIN
 90
        3
 91
        2
300
_DATA
309
CELLSTYLE_END
  0
ENDSEC
  0
SECTION
  2
ACDSDATA
 70
     2
 71
     8
  0
ACDSSCHEMA
 90
        0
  1
AcDb_Thumbnail_Schema
  2
AcDbDs::ID
280
    10
 91
        8
  2
Thumbnail_Data
280
    15
 91
        0
101
ACDSRECORD
 95
        0
 90
        1
  2
AcDbDs::TreatedAsObjectData
280
     1
291
     1
101
ACDSRECORD
 95
        0
 90
        2
  2
AcDbDs::Legacy
280
     1
291
     1
101
ACDSRECORD
  1
AcDbDs::ID
 90
        3
  2
AcDs:Indexable
280
     1
291
     1
101
ACDSRECORD
  1
AcDbDs::ID
 90
        4
  2
AcDbDs::HandleAttribute
280
     7
282
     1
  0
ACDSSCHEMA
 90
        1
  1
AcDbDs::TreatedAsObjectDataSchema
  2
AcDbDs::TreatedAsObjectData
280
     1
 91
        0
  0
ACDSSCHEMA
 90
        2
  1
AcDbDs::LegacySchema
  2
AcDbDs::Legacy
280
     1
 91
        0
  0
ACDSSCHEMA
 90
        3
  1
AcDbDs::IndexedPropertySchema
  2
AcDs:Indexable
280
     1
 91
        0
  0
ACDSSCHEMA
 90
        4
  1
AcDbDs::HandleAttributeSchema
  2
AcDbDs::HandleAttribute
280
     7
 91
        1
284
     1
  0
ACDSRECORD
 90
        0
  2
AcDbDs::ID
280
    10
320
10055
  2
Thumbnail_Data
280
    15
 94
     1762
310
89504E470D0A1A0A0000000D49484452000001000000007D08030000007A674DFF00000300504C5445212830FFFFFF2128300000000000000000000000000000000000000000000000000000330000660000990000CC0000FF0033000033330033660033990033CC0033FF0066000066330066660066990066CC0066FF0099
310
000099330099660099990099CC0099FF00CC0000CC3300CC6600CC9900CCCC00CCFF00FF0000FF3300FF6600FF9900FFCC00FFFF3300003300333300663300993300CC3300FF3333003333333333663333993333CC3333FF3366003366333366663366993366CC3366FF3399003399333399663399993399CC3399FF33CC00
310
33CC3333CC6633CC9933CCCC33CCFF33FF0033FF3333FF6633FF9933FFCC33FFFF6600006600336600666600996600CC6600FF6633006633336633666633996633CC6633FF6666006666336666666666996666CC6666FF6699006699336699666699996699CC6699FF66CC0066CC3366CC6666CC9966CCCC66CCFF66FF0066
310
FF3366FF6666FF9966FFCC66FFFF9900009900339900669900999900CC9900FF9933009933339933669933999933CC9933FF9966009966339966669966999966CC9966FF9999009999339999669999999999CC9999FF99CC0099CC3399CC6699CC9999CCCC99CCFF99FF0099FF3399FF6699FF9999FFCC99FFFFCC0000CC00
310
33CC0066CC0099CC00CCCC00FFCC3300CC3333CC3366CC3399CC33CCCC33FFCC6600CC6633CC6666CC6699CC66CCCC66FFCC9900CC9933CC9966CC9999CC99CCCC99FFCCCC00CCCC33CCCC66CCCC99CCCCCCCCCCFFCCFF00CCFF33CCFF66CCFF99CCFFCCCCFFFFFF0000FF0033FF0066FF0099FF00CCFF00FFFF3300FF3333
310
FF3366FF3399FF33CCFF33FFFF6600FF6633FF6666FF6699FF66CCFF66FFFF9900FF9933FF9966FF9999FF99CCFF99FFFFCC00FFCC33FFCC66FFCC99FFCCCCFFCCFFFFFF00FFFF33FFFF66FFFF99FFFFCCFFFFFF0000000D0D0D1A1A1A2828283535354343435050505D5D5D6B6B6B787878868686939393A1A1A1AEAEAEBB
310
BBBBC9C9C9D6D6D6E4E4E4F1F1F1FFFFFF0000000000000000000000000000000000000000000000000000000000002E4550F10000039D4944415478DAED9C5D72C3200C847503DDFF32DC8AF7CEC4064B42609CCEB432ECB64913C779D06721961F970882200882200882200882200882A0B1F83B95AFA7EF1409C0EFBEF5
310
5D2800100CC091D1CC5F0250199DEA23359F4505C09FD88F678381EB29FA5303C03470D9D6DD361F2E03E4735BEEDA97F300D24B0088DFE7009E0715AE08B2E030551ABD227864BC3A98DE5103740A1883A052629401649ABD7E13BD1B6C524003A08700A82907F10194E8D9ED261EF980741B604023E4A4C05E4EF0486B66
310
DF0E65CA392F6E85A517B0E1E7EB794300391FB16799041B0138AF7E3E1FBB01A8819F2A083601F049FA7C6038FE7E5E6D03A05E7AF967330074067FE6C3510DB7CA8072F14B195818C039E1A1005CD1ABC6B00B800BC1D9195C69B00B008920973C688BE0D44CB73CE955B3C2A515501666504F89CD04A54E7ADDB4F85507
310
5B275806BFE31C38AF7E3253466F0150FB04672C50029F0240E9BD007AF301B55D4F012000D81D80289B01010C96817B0012AD03C08DD667E0001847A54F8B09E0F66A2F0FC06D033E817501781F6F0280A99701C38591758A203FE92A1704C08FCCC2823EE0AF00847582FCC82FBA00D29B0130FD16C030AEF41A001D273C
310
0230414074824101E8B961F1618700FBBDFAEDC6D0B03342DCB1C3BD4ED2CC09AA646FB2BF4D85887B845CD727B606F22300E2C27B4D242600B604CAD648BE033034C49E550AB84F90EAF6105DF8D84F81665D4067BEB7332A4D7517FF0AC00C094D7E8C011C019AA227DE1A40E10030DB42A06B03CF00E83AA1361B020350
310
45802E007407E0895602E075F9EDA66973CA520048DE2320BAC594EAC2A134CD29D1720092FAA1EB2E8AA43848386B67403996CCB1E985D4FFEC063B006808C094371BB07DC4F601D508D8D01F6440FF11742C509D6063FEF9D6093A3520B5695F5A7E6C00A45701EABD644F33A04E122455064203A8A12BC3271AC59D0F50
310
23C06B2098A41134D342F100B4F30172603474820FEF870D0CA0592D9E03B08415BE9913E4EE9CA0778FE4F8CEC9C000FA67DDF900330E181F0D0AC0EE88B8DECF0090D777FA68A46E700460A61BBCCC6FA2FED1D000EE270FFB00C47DE4D2F637472302606EBA3DE7C01D00D520FA4763668059161073821D366B6500F57C
310
508BA65F04C52AA979DD1E8DBE38EA6C90EBAF0D2ED10B1813D4BE1DEC0F70C601FEE820B20F38A3ED9DE17C24ADB08992CCE8E01D778F7FFDAD05C602BBFF232508822008822008822008822008822008822008822008825EA61F32CCB2D72CEB21CC0000000049454E44AE426082
  0
ENDSEC
  0
EOF
